Fenix Tx - All My Fault Chords & Tabs

 

All My Fault Chords & Tabs

Fenix Tx Chords & Tabs

Version: 1 Type: Tab 0 ratings
1 star 2 stars 3 stars 4 stars 5 stars
comments

All My Fault Tab

   
Fenix TX - "All My Fault" 
Guitar Solo

Tabbed by Bryan Boyd

Standard Tuning - E A D G B E

 |1   .   2   .   3   .   4   .   |1   .   2   .   3   .   4   .   |
 ===================================================================
E|--------------------------------|--------------------------------|
B|--------7---8-------7---8---10--|----8---7---8-------8---7h8p7---|
G|7---9---------------------------|--------------------------------|
D|--------------------------------|--------------------------------|
A|--------------------------------|--------------------------------|
E|--------------------------------|--------------------------------|
 ===================================================================

|1   .   2   .   3   .   4   .   |1   .   2   .   3   .   4   .   |
===================================================================
|--------------------------------|--------------------------------|
|--------------------------------|--------------------------------|
|9---7---6---7---------------9---|----7---9---7---6-h-7-p-6-------|
|--------------------------------|----------------------------9---|
|--------------------------------|--------------------------------|
|--------------------------------|--------------------------------|
===================================================================

|1   .   2   .   3   .   4   .   |1   .   2   .   3   .   4   .   |
===================================================================
|--------------------------------|--------------------------------|
|----------------------------8---|----7---8---10--8---10--10--8---|
|----6-h-7---6-------------------|--------------------------------|
|9-------------------------------|--------------------------------|
|--------------------------------|--------------------------------|
|--------------------------------|--------------------------------|
===================================================================

|1   .   2   .   3   .   4   .   |1   .   2   .   3   .   4   .   |
===================================================================
|--------------------------------|--------5-----------------------|
|10--8---7-h-8-p-7---------------|----------------8-------8~~~10--|
|--------------------9---7---6---|7---6-------6-------------------|
|--------------------------------|--------------------------------|
|--------------------------------|--------------------------------|
|--------------------------------|--------------------------------|
===================================================================
[ Tab from: http://www.guitartabs.cc/tabs/f/fenix_tx/all_my_fault_tab.html ]
|1   .   2   .   3   .   4   .   |1   .   2   .   3   .   4   .   |
===================================================================
|------------9-------9---9---10--|----10--10--12------12--12------|
|10--10--10--10------10--10--10--|----10--10--10------10--10------|
|--------------------------------|--------------------------------|
|--------------------------------|--------------------------------|
|--------------------------------|--------------------------------|
|--------------------------------|--------------------------------|
===================================================================

|1   .   2   .   3   .   4   .   |1   .   2   .   3   .   4   .   |
===================================================================
|9h10p9--------------------------|--------------------------------|
|--------12--10--------------10--|----8---10--8---7-h-8-p-7-------|
|--------------------------------|----------------------------7---|
|--------------------------------|--------------------------------|
|--------------------------------|--------------------------------|
|--------------------------------|--------------------------------|
===================================================================

|1   .   2   .   3   .   4   .   |1   .   2   .   3   .   4   .   |
===================================================================
|--------------------------------|--------------------------------|
|----------------------------10--|----8---7-h-8---8---------------|
|7-p-6---7---7-------------------|--------------------------------|
|--------------------------------|--------------------------------|
|--------------------------------|--------------------------------|
|--------------------------------|--------------------------------|
===================================================================

|1   .   2   .   3   .   4   .   |1   .   2   .   3   .   4   .   |
===================================================================
|----------------7---------------|--------------------------------|
|8-h-10------10----------10--8---|----10--8---7---8---7-----------|
|--------------------------------|------------------------9---7---|
|--------------------------------|--------------------------------|
|--------------------------------|--------------------------------|
|--------------------------------|--------------------------------|
===================================================================

|1   .   2   .   3   .   4   .   |1   .   2   .   3   .   4   .   |
====================================================================
|--------------------------------|--------------------------------|-
|--------------------------------|--------------------------------|-
|7-------------------------------|--------------------7---7---7---|7
|--------------------------------|--------------------7---7---7---|7
|--------------------------------|--------------------5---5---5---|5
|--------------------------------|--------------------------------|-
====================================================================

comments, suggestions, etc., email me at 

bryan@websitelink.com

enjoy.
Comments