Fenix Tx - All My Fault Chords & Tabs

 

All My Fault Chords & Tabs

Fenix Tx Chords & Tabs

Version: 1 Type: Bass Tab 0 ratings
1 star 2 stars 3 stars 4 stars 5 stars
comments

All My Fault Bass Tab

fenix-tx "all my fault"

intro
g--------------------------------------------------
d--------------------------------------------------
a--5-----------------------------------------------
e------3-----5-------------------------------------

verse
g--------------------------------------------------
d---------5h7-4h5----------------------------------
a-55555555-----------------54--------45------------
e----------------3-33333333--55555555--------------
[ Tab from: http://www.guitartabs.cc/tabs/f/fenix_tx/all_my_fault_btab.html ]
chorus
g--------------------------------------------------
d--------------------------------------------------
a-------------------55555555-----------------------
e-77777777-333333333--------55555555---------------

post-chorus
g--------------------------------------------------
d--------------------------------------------------
a-55-5555-555-54--------54--------54-------------5-
e---------------33333333--55555555--7777777733355--

alternate verse
g---------------------------------------------------
d---------------------------------------------------
a-55555555------------------------------------------
e---------33333333-55555555-------------------------


by brettromero

Comments