Fenix Tx - Abba Zabba Chords & Tabs

 

Abba Zabba Chords & Tabs

Fenix Tx Chords & Tabs

Version: 1 Type: Tab 0 ratings
1 star 2 stars 3 stars 4 stars 5 stars
comments

Abba Zabba Tab

Fenix Tx - Abba Zabba
By:Andrew (Guitarguyx182@belg88.com)
[ Tab from: http://www.guitartabs.cc/tabs/f/fenix_tx/abba_zabba_tab.html ]
Intro
e|---------------------------------------------------------------------------|
B|---------------------------------------------------------------------------|
G|-7-9-7-11-9-7--7-9-7-11-9-7------------------------------------------------|
D|-x-x-x-x--x-x--x-x-x-x--x-x------------------------------------------------|
A|-5-7-5-9--7-5--5-7-5-9--7-5------------------------------------------------|
E|---------------------------------------------------------------------------|
Verse
e|---------------------------------------------------------------------------|
B|---------------------------------------------------------------------------|
G|-----------------7-7-7-7-----------------7-7-7-7---------------------------|
D|-5-5-5-5-7-7-7-7-7-7-7-7-5-5-5-5-7-7-7-7-7-7-7-7---------------------------|
A|-5-5-5-5-7-7-7-7-5-5-5-5-5-5-5-5-7-7-7-7-5-5-5-5---------------------------|
E|-3-3-3-3-5-5-5-5---------3-3-3-3-5-5-5-5-----------------------------------|
Chorus
e|---------------------------------------------------------------------------|
B|---------------------------------------------------------------------------|
G|-4-4-4-3-3-3-7-7-7-7--4-4-4-3-3-3-7-7-7-7-4-4-4-3-3-3-7-7-7---------7-7----|
D|-4-4-4-3-3-3-7-7-7-7--4-4-4-3-3-3-7-7-7-7-4-4-4-3-3-3-7-7-7-5-5-4-4-7-7----|
A|-2-2-2-1-1-1-5-5-5-5--2-2-2-1-1-1-5-5-5-5-2-2-2-1-1-1-5-5-5-5-5-4-4-5-5----|
E|------------------------------------------------------------3-3-2-2--------|
Comments