Fenix Tx - A Song For Everyone Chords & Tabs

 

A Song For Everyone Chords & Tabs

Fenix Tx Chords & Tabs

Version: 1 Type: Bass Tab 0 ratings
1 star 2 stars 3 stars 4 stars 5 stars
comments

A Song For Everyone Bass Tab

   
Tabbed By : SugarCultKFK35
e-mail: Sk8totheataris35@aol.com

I was getting pissed cause no tab site 
on the net had bass tabs for this song
so I tabbed it. Rate me dudes, or email me.

Tuning: Standard Tuning

* - Let Ring

Intro:
       Part 1                                        Part 2
G------------------------I--------------------------------------
D------------------------I---------------------------------(4x)-
A--1*----3*----3*--(2x)--I--11111111-33333333--------3333333----
E------------------------I-------------------11111111-----------
                                (On the last two strum lighter)
Verse:
"Well I know...."

G------------------------------------------I-----(Play this only
D------------------------------------(2x)--I-----  after the first
A--11111111-5555555-33333333---------------I-----    riff)
E---------------------------33333333-------I--1--

G------------------------------------------I-----(Only after first
D------------------------------------(2x)--I-----  riff again)
A--11111111-33333333--------33333333-------I-----
E-------------------11111111---------------I--1--
    (Strum light like the intro)          

Pre-Chorus:
"All that I have..."
G---------------------------------------
D-------------(Figure out the pattern)--
A--1-11-1-11-1--------------------------
E---------------------------------------

Chorus:
"Twenty-six dollars..."
G------------------------------
D------------------------------
A-11-33--------33333333-11-33--
E------11111111----------------

G----------------------------------------------------
D----------------------------------------------------
A-11111111-33333333--------33-55-44-22-33333333-1*---
E------------------11111111--------------------------

Then play the second part of the intro twice
Then the whole verse
Then pre-chorus
Then chorus
[ Tab from: http://www.guitartabs.cc/tabs/f/fenix_tx/a_song_for_everyone_btab.html ]
Interlude (Solo):
G------------------------------------------------------------------------------------
D------------------------------------------------------------------------------------
A-3333-22-33-5555-66-55-33333333-5555-44-55-3333-22-33-5555-66-55-33333333-555-44-55-
E------------------------------------------------------------------------------------

G------------------------------------------------------
D------------------------------------------------------
A--3333-22-33-5555-66-55-33333333-5555-44-55-----(2x)--
E------------------------------------------------------

G-------------------------------------------------------------------------------------
D-------------------------------------------------------------------------------------
A-3333-22-33-5555-66-55-33333333-5555-44-55-3333-22-33-5555-66-55-33333333-5555-44-55-
E-------------------------------------------------------------------------------------

Bridge:
"All I have                         (Replace the parentheses with this)
G------------------------------------------------------I-------------------
D------------------------------------------------------I-------------------
A--3333-22-33-5555-66-55-(33333333-5555-44-55)---(2x)--I-11111111-33333333-
E------------------------------------------------------I-------------------

                                             (Replace again but three times)
G------------------------------------------------------I---------------------
D------------------------------------------------------I----------------(3x)-
A--3333-22-33-5555-66-55-(33333333-5555-44-55)---(2x)--I-11111111-33333333---
E------------------------------------------------------I---------------------

Outro:
G----------------------------
D----------------------------
A---1*---3*---3*---1*---3*---
E----------------------------
Comments