Fefe Dobson - Rock It Till You Drop It Chords & Tabs

 

Rock It Till You Drop It Chords & Tabs

Fefe Dobson Chords & Tabs

Version: 1 Type: Tab 0 ratings
1 star 2 stars 3 stars 4 stars 5 stars
comments

Rock It Till You Drop It Tab

   
FeFe Dobson
Rock It Till You Drop It
FeFe Dobson (2003)
Standard Tuning

e|-----------------------|
b|-----------------------|
g|-----------------------|
d|-7--11-11--9---6-6-6/7-|
a|-7--11-11--9---6-6-6/7-|
e|-5--9--9---7---4-4-4/5-|
[ Tab from: http://www.guitartabs.cc/tabs/f/fefe_dobson/rock_it_till_you_drop_it_tab.html ]
e|-----------------------|----------------|
b|-----------------------|----------------|
g|-10--------------------|----------------|
d|-10-(8x)-5-5-5-7-7-7-7-|-3-33-33-333333-|
a|-8-------5-5-5-7-7-7-7-|-3-33-33-333333-|
e|---------3-3-3-5-5-5-5-|-1-01-01-010101-|
Comments