Feederz - Burning Mp3s Chords & Tabs

 

Burning Mp3s Chords & Tabs

Feederz Chords & Tabs

Version: 1 Type: Tab 0 ratings
1 star 2 stars 3 stars 4 stars 5 stars
comments

Burning Mp3s Tab

BURNING MP3s, by the Feederz
Tabbed by jake Strange.

e|---------------|-----------------|
B|---------------|-----------------|
G|--9----7----9--|--12-------------|
D|--9----7----9--|--12----12----9--|
A|--7----5----7--|--10----12----9--|
E|---------------|--------10----7--|
[ Tab from: http://www.guitartabs.cc/tabs/f/feederz/burning_mp3s_tab.html ]
e|-------------------|---------------------|
B|-------------------|---------------------|
G|--9----12------14--|--9----12----7----9--|
D|--9----12--12--14--|--9----12----7----9--|
A|--7----10--12--12--|--7----10----5----7--|
E|-----------10------|---------------------|

Play the riff above once, repeat it and end it
with the part below. This is the whole song.

e|-------------------|----------------------|
B|-------------------|----------------------|
G|--12---------------|--9----12----7----9---|
D|--12----12----9----|--9----12----7----9---|
A|--10----12----9----|--7----10----5----7---|
E|--------10----7----|----------------------|
Comments