Feeder - Whooey Chords & Tabs

 

Whooey Chords & Tabs

Feeder Chords & Tabs

Version: 1 Type: Tab 0 ratings
1 star 2 stars 3 stars 4 stars 5 stars
comments

Whooey Tab

   
Band: Feeder
Song: Whooey
Album: Paperfaces CDS

Original Tab By Alex Ball

Standard Tuning

Chords:

    Bb5  Ab5  Eb/G Eb5
E|--------------------|
B|--------------------|
G|-----------------8--|
D|--8----6----5----8--|
A|--8----6----6----6--|
E|--6----4----3-------|


Verse:
[ Tab from: http://www.guitartabs.cc/tabs/f/feeder/whooey_tab.html ]
Gtr1:
E|----------------------------------------------------------------------|
B|----------------------------------------------------------------------|
G|----------------------------------------------------------------------|
D|--8-8-8-8-8-8-8-8--8-8-8-8-8-8-8-8--8-8-8-8-8-8-8-8--8-8-8-8-8-8-8-8--|
A|----------------------------------------------------------------------|
E|--6-6-6-6-6-6-6-6--4-4-4-4-4-4-4-4--3-3-3-3-3-3-3-3--4-4-4-4-4-4-4-4--|

Gtr2:
E|----------------|
B|--11p-9b to 11--|
G|----------------|
D|----------------|
A|----------------|
E|----------------|

Chorus:

Bb5            Ab5      Eb/G  Ab5
   Cause we're floating by,
Bb5          Ab5         Eb5     Ab5
   While the whole world slides,
Bb5         Ab5     Eb/G   Ab5
   You just make it shine,
Bb5         Ab5   Eb5   Ab5
   Leave it all behind,

BRIDGE:

Play this chord sequence: Eb5/Bb, Bb5, Ab5, Eb5

I love this song!!
Comments