Feeder - We Cant Rewind Chords & Tabs

 

We Cant Rewind Chords & Tabs

Feeder Chords & Tabs

Version: 2 Type: Tab 0 ratings
1 star 2 stars 3 stars 4 stars 5 stars
comments

We Cant Rewind Tab

Song - We Can't Rewind
Artist - Feeder
Tabbed by - Greg Harrison
tuning - Standard (eBGDAE)
E-mail - greg_7485@hotmail.com


INTRO/VERSE
-----------------------------------------
-----------------------------------------THIS IS REPEATED A BUNCH
-----------------------------------------OF TIMES....
--7777777755555555-7777777755555555------
--5555555555555555-5555555555555555------
-----------------------------------------
[ Tab from: http://www.guitartabs.cc/tabs/f/feeder/we_cant_rewind_tab_ver_2.html ]
CHORUS
-----------------------------------------------
-----------------------------------------------
--7-7-------------------7-7--------------------
--7-7---7-7--9-9--5-5---7-7--7-7--9-9--5-5-----
--5-5---7-7--9-9--5-5---5-5--7-7--9-9--5-5-----
--------5-5--7-7--3-3--------5-5--7-7--3-3-----

then the second part of the chorus.....
-----------------------------------------------
-----------------------------------------------
--7-7-7-7--------------------------------------
--7-7-7-7-7-7-7-7-9-9-9-9-5-5-5-5-----X2-------
--5-5-5-5-7-7-7-7-9-9-9-9-5-5-5-5--------------
----------5-5-5-5-7-7-7-7-3-3-3-3--------------



Listen to the track for timing and repeats etc
Any comments or improvements to greg_7485@hotmail.com











THen u repeat the vers and chorus etc.ull have to listen to the track for the amount of repeats and stuff.

Comments