Feeder - We Cant Rewind Chords & Tabs

 

We Cant Rewind Chords & Tabs

Feeder Chords & Tabs

Version: 1 Type: Bass Tab 0 ratings
1 star 2 stars 3 stars 4 stars 5 stars
comments

We Cant Rewind Bass Tab

song: we cant rewind
Artist: feeder
Album: echo park
Author: jamie - dsaveryds@hotmail.com
Tuning: standard EADG

okay. this a cool song that hasnt been tabbed on this website 
so i thought id make the world a better place and put it on 
here for you!!  it is easy when u play along with the cd. 
However im only 95% sure about the bridge and the part the afta 
but it sounds okay to me, any suggestions then e-mail me!


Intro- no bass

Verse  (it doesnt start straight away, approx 30 secs)
G|-----------------------|
D|-----------------------|
A|-5555--0000--2222------|     X4
E|-------------------3333|

chorus
G|------------------|-----------------|
D|------------------|-----------------|
A|-55---00---22-----|-55---00---------|     X1     
E|----------------33|----------22---33|
(this is played on the first chorus only, after u play this 
u go staight into this)

G|-----------------------|-----------------------|
D|-----------------------|-----------------------|
A|-5555--0000--2222------|-5555--0000------------|   X1
E|-------------------3333|-------------2222--3333|

Pre-verse- no bass (we cant rewind)

Verse- same as verse above  X4

chorus
G|-----------------------|-------------------------|
D|-----------------------|-------------------------|
A|-5555--0000--2222------|-5555--0000--------------|  X2
E|-------------------3333|---------------2222--3333|
[ Tab from: http://www.guitartabs.cc/tabs/f/feeder/we_cant_rewind_btab.html ]
G|-----------------------|
D|-----------------------|
A|-5555--0000--2222------|      X2
E|-------------------3333|

Bridge
G|--------------------|
D|--------------------|
A|-----------555555555|     X1
E|-2222-3333----------|

G|--------------------|
D|--------------------|
A|-----------5555-0000|     X1
E|-2222-3333----------|

G|-----------------------------|
D|-----------------------------|
A|-55555555--0000--2222--------|     X1
E|-------------------33333333-3|G|-----------------------|
D|-----------------------|
A|-5555--0000--2222------|     X2
E|-------------------3333|

(slow bit)
G|----------------|
D|----------------|
A|-5--0---2-------|     X1
E|-----------3-323|

G|-----------|
D|-----------|
A|-5--0---2~-|     X1 ~means to let the note  ring
E|-----------|

pre-chorus
G|------------------|------------------|
D|------------------|------------------|
A|-55---00---22-----|-55---00----------|      X1
E|----------------33|-----------22---33|

G|------------------|--------------------|
D|------------------|--------------------|
A|-55---00---22-----|-55---00------------|     X1
E|----------------33|-----------2222-3333|

chorus
G|-----------------------|-----------------------|
D|-----------------------|-----------------------|
A|-5555--0000--2222------|-5555--0000------------|     X4
E|-------------------3333|-------------2222--3333|


Well thats it. it looks complicated but there are only minor 
differences, however i like playing them 100% correct and i 
want u guys 2 as well so any corrections, mail me!!
Comments