Feeder - Wating For Changes Chords & Tabs

 

Wating For Changes Chords & Tabs

Feeder Chords & Tabs

Version: 1 Type: Tab 0 ratings
1 star 2 stars 3 stars 4 stars 5 stars
comments

Wating For Changes Tab

   
TITLE: Waiting for Changes 
ALBUM: Yesterday Went Too Soon
GROUP: Feeder
Drop-D Tuning


INTRO VERSE: Listen to CD for rhythm
    D5  B5  C5   G5
E|------------------|
B|------------------|
G|------------------|
D|--0---9---10---5--|
A|--0---9---10---5--|
D|--0---9---10---5--|

CHOURS:
    D5  E5  C5  E5
E|-----------------|
B|--3--------------|
G|--2-------5------|
D|--0---2---5---2--|
A|--0---2---3---2--|
D|--0---2-------2--|

VERSE 2: A second guitar is added working around this lick
Note- When I say 9th fret I mean bend the 7th 
fret to the pitch of the 9th fret.
E|------------------|
B|---5---5-5-5-5-5--|
G|---7b--9-9-9-7-7--|
D|------------------|
A|------------------|
D|------------------|
[ Tab from: http://www.guitartabs.cc/tabs/f/feeder/wating_for_changes_tab.html ]
INTERLUDE:
E|---------------------------------------------------------------|
B|---------------------------------------------------------------|
G|---------------------------------------------------------------|
D|---------------------------------------------------------------|
A|12-12-12--1212--11-11-11--1111--10-10-10--1010---9--9--9---9-9-|
D|-0--0--0---0-0---0--0--0---0-0---0--0--0---0-0---0--0--0---0-0-|

VERSE 3: "Take a ride to Cherry Cross..."
The second guitar plays this lick:
E|-------------------------------------|
B|-------------------------------------|
G|--9-9p-7---9-9p-7---9-9p-7---9-9p-7--|
D|-------------------------------------|
A|-------------------------------------|
D|-------------------------------------|

LAST CHOURS:
Second guitar plays this lick:
E|-1212-10--1212-10--1212-10--1212-10--|
B|-------------------------------------|
G|--9-9p-7---9-9p-7---9-9p-7---9-9p-7--|
D|-------------------------------------|
A|-------------------------------------|
D|-------------------------------------|
Comments