Feeder - Under The Weather Chords & Tabs

 

Under The Weather Chords & Tabs

Feeder Chords & Tabs

Version: 1 Type: Tab 0 ratings
1 star 2 stars 3 stars 4 stars 5 stars
comments

Under The Weather Tab

   
Band: Feeder
Song: Under The Weather
Album: Echo park
Tab By: Martyn Blades (bladeztisme@hotmail.com)

INTRO:

E|--0--0--0-0--0--0--0-0--|
B|--5--5--4-5--5--5--4-5--|
G|------------------------|
D|------------------------|
A|------------------------|
E|------------------------|

Chord sequence: Cycle 1:

    E5        A5         B5
E|----------------------------------------------------------|
B|----------------------------------------------------------|
G|----------------------------------------------------------|
D|--2--2--2-2--7--7--7-7--9--9-9--10-10-10-10--10-10-10-10--|
A|--2--2--2-2--7--7--7-7--9--9-9----------------------------|
E|--0--0--0-0--5--5--5-5--7--7-7----------------------------|

Cycle 2:

    E5        A5         B5       A5         G5
E|-----------------------------------------------|
B|-----------------------------------------------|
G|-----------------------------------------------|
D|--2--2--2-2--7--7--7-7--9--9-9---7-7-7-7---5---|
A|--2--2--2-2--7--7--7-7--9--9-9---7-7-7-7---5---|
E|--0--0--0-0--5--5--5-5--7--7-7---5-5-5-5---3---|

VERSE: The bends on the 12 fret of the G string have to be only a semi-tone 
so that
they sound the same pitch as the 9th fret of the B string.
[ Tab from: http://www.guitartabs.cc/tabs/f/feeder/under_the_weather_tab.html ]
E|-----------------------------------------------------------------------------|
B|-----9---9---9-9------9---9---9-9------9---9---9-9------9---9--10-10-10-10---| 
Repeat
G|--12b-12b-12b------12b-12b-12b------12b-12b-12b------12b-12b-----------------|
D|-----------------------------------------------------------------------------|
A|-----------------------------------------------------------------------------|
E|-----------------------------------------------------------------------------|

CHORUS:

E5, A5, B5, A5
E5, A5, B5, A5, G5 (same as intro)

Bridge:

C5, D5, B5

Lead: Trill these notes: Listen to Cd for reference

E|-------------------------------------------------|
B|--------------------15--14--12---10---9--7--9b---|
G|--9---11----13-14--------------------------------|
D|-------------------------------------------------|
A|-------------------------------------------------|
E|-------------------------------------------------|

Final verse: This is the keyboard part transcribed for guitar:

E|--0---2---5---4-----0---2---5---4----|
B|----5---5---5---5-----5---5---5---5--|
G|-------------------------------------|
D|-------------------------------------|
A|-------------------------------------|
E|-------------------------------------|

Outro:

Ends G5, E5.
Comments