Feeder - Tv Me Chords & Tabs

 

Tv Me Chords & Tabs

Feeder Chords & Tabs

Version: 2 Type: Tab 0 ratings
1 star 2 stars 3 stars 4 stars 5 stars
comments

Tv Me Tab

   
SONG: TV ME
TAB BY: ALEX BALL (Al_Fish18@hotmail.com)

INTRO/VERSE RIFF:

E|-----------------------------------------------------------|
B|-----------------------------------------------------------|
G|-----------------------------------------------------------|
D|-11--11--11-11-11---12-11--7--11--11--11-11-11---12-11-14--|
A|--0---0---0--0--0----0--0--0---0---0---0--0--0----0--0--0--|
E|-----------------------------------------------------------|

LINK TO CHORUS:

GUITAR 1:

Emaj, Gmaj

GUITAR 2: PLAY THIS OVER Gmaj CHORD:

E|----------|
B|----------|
G|--4~~~~~--|
D|----------|
A|----------|
E|----------|

CHORUS:
[ Tab from: http://www.guitartabs.cc/tabs/f/feeder/tv_me_tab_ver_2.html ]
GUITAR 1:

Amaj, Em, Gmaj, Dmaj

GUITAR 2: PICK AROUND THESE NOTES:

E|---5-7-|
B|---5---|
G|-------|
D|-------|
A|-------|
E|-------|

BRIDGE:

GTR 1: PLAY AROUND THIS:

E|----------|
B|----------| etc
G|-12--14---|
D|----------|
A|--0--0----|
E|----------|

GTR 2: PLAY THESE NOTES:
                             Emaj  Gmaj
E|----------------------------------------|
B|----------------------------------------|
G|--6---7---9---11---6---7---9-----4~~~~--|
D|----------------------------------------|
A|----------------------------------------|
E|----------------------------------------|
Comments