Feeder - Tv Me Chords & Tabs

 

Tv Me Chords & Tabs

Feeder Chords & Tabs

Version: 1 Type: Tab 0 ratings
1 star 2 stars 3 stars 4 stars 5 stars
comments

Tv Me Tab

   
Band   : Feeder
Album  : Tangerine CDS
Song   : TV Me

Original Tab By Alistair Knock

Chords:

E5  -   022xxx      A5  -   x022xx
G5  -   355xxx      D5  -   x577xx

Chords for acoustic chorus:

Em  -   022000      A   -   x02220
G   -   320003      D5  -   xx0232

Riff:  (repeat for intro/verse)
[ Tab from: http://www.guitartabs.cc/tabs/f/feeder/tv_me_tab.html ]
e|--------------------------------------------------------0---------|
B|------2-2-2-----3---2-----------------2-2-2-----3---2---2---------|
G|--2-2-2-2-2---2-2---2---2---------2-2-2-2-2---2-2---2---2---------|
D|--2-2-2-2-2---2-2---2---2---------2-2-2-2-2---2-2---2---2---------|
A|--0-0-0-0-0---0-0---0---0---------0-0-0-0-0---0-0---0---0---------|
E|------------------------------------------------------------------|

Bridge:

E5      G5      (Riff)
E5      G5

Chorus:

A5      E5      G5      D5
A5      E5      G5      D5
A5      E5      G5      D5
A5      E5      G5      D5

Interlude:

e|------------------------------------------------------------------|
B|------------------------------------------------------------------|
G|--2---2-0-2---0-2---2---0-2---0---2---2-0-2---0-2---2---0-2---0---|
D|--2---2-2-2---2-2---2---2-2---2---2---2-2-2---2-2---2---2-2---2---|
A|--0---0-0-0---0-0---0---0-0---0---0---0-0-0---0-0---0---0-0---0---|
E|------------------------------------------------------------------|
Comments