Feeder - Turn Chords & Tabs

 

Turn Chords & Tabs

Feeder Chords & Tabs

Version: 2 Type: Tab 0 ratings
1 star 2 stars 3 stars 4 stars 5 stars
comments

Turn Tab

   
Turn
Feeder

tabbed by the good fellow. 
any corrections etc to good_fellow_baldo@hotmail.com

well here it is folks. this is pretty much it.great song

intro-clean/mild distortion
   E           Eb 
e--------------------------
B--------------------------
G--------13-13-------12-12-
D--------14-14-------13-13- (x2)
A--------14-14-------13-13-
E--12-12-12-12-11-11-11-11-

Verse
   E           Eb          E           B
e-----------------------------------------(7)(7)-
B-----------------------------------------(7)(7)-
G--------13-13-------12-12-------13-13-----8--8-- strings in brackets are
D--------14-14-------13-13-------14-14-----9--9-- optional (sounds better
A--------14-14-------13-13-------14-14-----9--9-- though)
E--12-12-12-12-11-11-11-11-12-12-12-12-7-7-7--7--

Seeing things, going places,
Living out of suitcases,
Every dayīs like a dream.
I find myself talking to shadows,
Taking the train of youth, back home again.

Bridge
  c#m         A 
e------(9)(9)----(5)(5)-
B------(9)(9)----(5)(5)-
G------(9)(9)-----6--6--
D------11-11------7--7-- (x2) 
A------11-11------7--7--
E--9-9--9--9--5-5-5--5--

'Cos I, donīt want to be a hero.
But I, donīt want to be a zero.

Chorus-distortion
   B  c#m A  E
e--7---9--5-----
B--7---9--5-----
G--8---9--6--13-
D--9--10--7--14-
A--9--10--7--14-
E--7---9--5--12-

And I donīt want to sit here wasting time,
I just want a place inside your mind,
I wish that I could turn the clocks right back,
Itīs easy to forget just what youīve got.

Link
   E           Eb          
e--------------------------
B--------------------------
G--------13-13-------12-12-
D--------14-14-------13-13- 
A--------14-14-------13-13-
E--12-12-12-12-11-11-11-11-

Verse
   E           Eb          E           B
e-----------------------------------------(7)(7)-
B-----------------------------------------(7)(7)-
G--------13-13-------12-12-------13-13-----8--8--
D--------14-14-------13-13-------14-14-----9--9--
A--------14-14-------13-13-------14-14-----9--9--
E--12-12-12-12-11-11-11-11-12-12-12-12-7-7-7--7--
[ Tab from: http://www.guitartabs.cc/tabs/f/feeder/turn_tab_ver_2.html ]
Seeing things, going places,
Meeting all kinds of faces,
Everydayīs like a scene.
I find myself going through phases,
Trying to find somewhere, that I can be me.

Bridge
  c#m         A 
e------(9)(9)----(5)(5)-
B------(9)(9)----(5)(5)-
G------(9)(9)-----6--6--
D------11-11------7--7-- (x2) 
A------11-11------7--7--
E--9-9--9--9--5-5-5--5--

'Cos I, donīt want to be your hero.
But I, donīt want to be a zero.

Chorus
   B  c#m A  E
e--7---9--5-----
B--7---9--5-----
G--8---9--6--13-
D--9--10--7--14-
A--9--10--7--14-
E--7---9--5--12-

And I donīt want to sit here wasting time,
I just want a place inside your mind,
I wish that I could turn the clocks right back,
Itīs easy to forget just what youīve got.
Iīm not trying to find an easy way,
Picking up the pieces of a page,
Iīm looking for a place inside your mind,
'Cos I donīt want to leave it all behind.

Middle
   Ab A  E  
e--4--5--0-
B--4--5--0-
G--5--6--1-
D--6--7--2-
A--6--7--2-
E--4--5--0-

So come on, give in, thereīs no beauty in this pain.
so come on, connect, weīve got to find ourselves again.

Solo
 E       Eb         E               A   
e------------------------------------------
B------------------------------------------
G--13~~~-12/\/\/\/\-13~~-14-15-slide-11~~~-
D------------------------------------------
A------------------------------------------
E------------------------------------------
          BU & BD repetitively

Bridge
  c#m         A 
e------(9)(9)----(5)(5)-
B------(9)(9)----(5)(5)-
G------(9)(9)-----6--6--
D------11-11------7--7-- (x2) 
A------11-11------7--7--
E--9-9--9--9--5-5-5--5--

'Cos I, don't wanna be your hero.

Chorus-distortion
   B  c#m A  E
e--7---9--5-----
B--7---9--5-----
G--8---9--6--13-
D--9--10--7--14-
A--9--10--7--14-
E--7---9--5--12-

And I donīt want to sit here wasting time,
I just want a place inside your mind,
I wish that I could turn the clocks right back,
Itīs easy to forget just what youīve got.
Iīm trying to find an easy way,
Picking up the pieces of a page,
Iīm looking for a place inside your mind,
'Cos I donīt want to leave it all behind.
           
 repeat to fade
Comments