Feeder - Turn Chords & Tabs

 

Turn Chords & Tabs

Feeder Chords & Tabs

Version: 1 Type: Tab 0 ratings
1 star 2 stars 3 stars 4 stars 5 stars
comments

Turn Tab

ok i can only b arsed to do the intro but its the same for the verse so here we go
[ Tab from: http://www.guitartabs.cc/tabs/f/feeder/turn_tab.html ]
e-------------------------------------------------
b-------------------------------------------------
g--------13-13-------13-13------------------------
D--------13-13-------13-13-------13-13-------13-13
A--11-11-11-11-11-11-11-11-------13-13-------13-13
E--0--0--0--0--0--0--0--0--11-11-11-11-11-11-11-11

e-----------------------------------------
b-----------------------------------------
g--------13-13-------13-13----------------
D--------13-13-------13-13-----9-9-----9-9
A--11-11-11-11-11-11-11-11-----9-9-----9-9
E--0--0--0--0--0--0--0--0--7-7-7-7-7-7-7-7

its sumthing like that im not sure bout the rhythm ive just done this without a guitar so 
listen to the song 
Comments