Feeder - Turn Chords & Tabs

 

Turn Chords & Tabs

Feeder Chords & Tabs

Version: 1 Type: Bass Tab 0 ratings
1 star 2 stars 3 stars 4 stars 5 stars
comments

Turn Bass Tab

   
Artist - Feeder
Song - Turn
Album - Echo Park (April 2001) - Echo
Bassist - Taka Hirose
Notes - Standard Tuning [EADG]
Tabbed By - Oriol [uri_13_@hotmail.com]

~ --> let ring

Intro (no bass)

Verse

G:-----------------------------|
D:-----------------------------|
A:-7-77-7-7-77-7-6-66-6-6-66-6-|
E:-----------------------------| x2

G:-----------------------------|
D:-----------------------------|
A:-7-77-7-7-77-7---------------|
E:---------------7-77-7-7-77-7-|

G:-----------------------------|
D:-----------------------------|
A:-7-77-7-7-77-7-6-66-6-6-66-6-|
E:-----------------------------|

G:-----------------------------|
D:-----------------------------|
A:-7-77-7-7-77-7---------------|
E:---------------7-77-7-7-77-7-|

Pre-chorus

G:-----------------------------|
D:-----------------------------|
A:-----------------------------|
E:-9-99-9-9-99-9-5-55-5-5-55-5-| x2

Chorus

G:----------------------------------|
D:----------------------------------|
A:----------------------------------|
E:-77777777777777779999999999999999-

G:--------------------------------------------------|
D:--------------------------------------------------|
A:--------------------------------------------------|
E:-555555555555555512121212121212121212121212121212-

Verse

G:-----------------------------|
D:-----------------------------|
A:-7-77-7-7-77-7-6-66-6-6-66-6-|
E:-----------------------------| x2

G:-----------------------------|
D:-----------------------------|
A:-7-77-7-7-77-7---------------|
E:---------------7-77-7-7-77-7-|

G:-----------------------------|
D:-----------------------------|
A:-7-77-7-7-77-7-6-66-6-6-66-6-|
E:-----------------------------|
[ Tab from: http://www.guitartabs.cc/tabs/f/feeder/turn_btab.html ]
G:-----------------------------|
D:-----------------------------|
A:-7-77-7-7-77-7---------------|
E:---------------7-77-7-7-77-7-|

Pre-chorus

G:-----------------------------|
D:-----------------------------|
A:-----------------------------|
E:-9-99-9-9-99-9-5-55-5-5-55-5-| x2

Chorus

G:----------------------------------|
D:----------------------------------|
A:----------------------------------|
E:-77777777777777779999999999999999-

G:--------------------------------------------------|
D:--------------------------------------------------|
A:--------------------------------------------------|
E:-555555555555555512121212121212121212121212121212- x2

Bridge

G:---------------------------------|
D:---------------------------------|
A:---------------------------------|
E:-4444444455555555555555500000000-

G:-------------------------------|
D:-------------------------------|
A:-------------------------------|
E:-444444445555555555555555~-/12-|

(During Guitar Solo)

G:-----------------------------|
D:-----------------------------|
A:-7-77-7-7-77-7-6-66-6-6-66-6-|
E:-----------------------------|

G:-----------------------------|
D:-----------------------------|
A:-7-77-7-7-77-7---------------|
E:---------------7-77-7-7-77-7-|

G:-----------------------------|
D:-----------------------------|
A:-----------------------------|
E:-9-99-9-9-99-9-5-55-5-5-55-5-|

Chorus

G:----------------------------------|
D:----------------------------------|
A:----------------------------------|
E:-77777777777777779999999999999999-

G:--------------------------------------------------|
D:--------------------------------------------------|
A:--------------------------------------------------|
E:-555555555555555512121212121212121212121212121212- (until the end of the song)
Comments