Feeder - Tomorrow Shine Chords & Tabs

 

Tomorrow Shine Chords & Tabs

Feeder Chords & Tabs

Version: 2 Type: Tab 0 ratings
1 star 2 stars 3 stars 4 stars 5 stars
comments

Tomorrow Shine Tab

   
Band: Feeder
Song: Tomorrow Shine
Album: Yestarday Went Too Soon CDS

Capo 3rd Fret

Notes & chords r relative to capo 

   A5 C  Em  D9/F#   G
E|-0--0--0----0------3-|
B|-0--1--0----3------3-|
G|-2--0--0----2------0-|
D|-2--2--2----0------0-|
A|-0--3--2----0------2-|
E|-------0----2------3-|

Verse:

Gtr1-->play these chords: A5  C (repeat as necessary)
[ Tab from: http://www.guitartabs.cc/tabs/f/feeder/tomorrow_shine_tab_ver_2.html ]
Gtr2:
E|-------------------------------------------------------------------|
B|-------------------------------------------------------------------|
G|------4-----4----------4-----2------0-----0----------0-----0-------|
D|----2-----2-----2----2-----2------2-----2-----2----2-----2------2--|
A|--0-----0-----0----0-----0------3-----3-----3----3-----3-----3-----|
E|-------------------------------------------------------------------|
play it over and over..



Chorus
gtr1-->play these chords: Em, D9/F#, G, D9/F# (repeat as necessary)
gtr2: strum gtr1 chords(arpeggio)                        
repeat verse
repeat chorus

Bridge
Gtr1:
     E|----------------------------------|x3
     B|----------------------------------|
     G|----------------------------------|
     D|--7-7--7s-9-6-6-6s-7-5-5-5s-7-4-4-|
     A|----------------------------------|
     E|--5-5--5s-7-4-4-4s-5-3-3-3s-5-2-2-|

Gtr2:
     E|----------10----------11---------|x3
     B|--11--------------------------9--|
     G|---------------------------------|
     D|---------------------------------|
     A|---------------------------------|
     E|---------------------------------|
repeat verse
repeat chorus

end on Em

I really love this song!!hope it's right!
Comments