Feeder - Sweet 16 Chords & Tabs

 

Sweet 16 Chords & Tabs

Feeder Chords & Tabs

Version: 1 Type: Bass Tab 0 ratings
1 star 2 stars 3 stars 4 stars 5 stars
comments

Sweet 16 Bass Tab

Sweet 16 bass tab by Feeder.

Tabbed By Stuart Johnson (chinkostu@hotmail.com)
edited: 28/3/06 and 5/4/06

Tuning: DADG

Intro
G]-----------------------------|
D] ----------------------------|
A] ----------------------------|
D] ----(guitar)-----12/0-------|

G]-----------------|
D] ----------------|
A] --5-5-3--5-5-3-3|
D] -----0-00-0-0-0-|X8
[ Tab from: http://www.guitartabs.cc/tabs/f/feeder/sweet_16_btab.html ]
Chorus
G]-----------------------------------|
D] ----------------------------------|
A] ----------------------------------|
D] 11111111333333331111111155555555--|X2 (1,3 and 5,not 11, 13 etc :P) 
Verse
G]-----------------|
D] ----------------|
A] --5-5-3--5-5-3-3|
D] -----0-00-0-0-0-|X8
Chorus
G]-----------------------------------|
D] ----------------------------------|
A] ----------------------------------|
D] 11111111333333331111111155555555--|X2
Verse
G]-----------------|
D] ----------------|
A] --5-5-3--5-5-3-3|
D] -----0-00-0-0-0-|X8
Bridge
G]-------------------------------------------------------------|
D] ------------------------------------------------------------|
A] ------------------------------------------------------------|
D] -110203-33-33-110203-33-33-35-110203-33-33-110203-33-33-01--|X1

G]------------------------------|
D] -----------------------------|
A] -----------------------------|
D] -3322110-3322110-4h5p4---0~--|X2

(The open note is only played the second time round)

[Guitar Bridge]
Verse
G]-----------------|
D] ----------------|
A] --5-5-3--5-5-3-3|
D] -----0-00-0-0-0-|X6
Chorus
G]-----------------------------------|
D] ----------------------------------|
A] ----------------------------------|
D] 11111111333333331111111155555555--|X2

G]-----------------|
D] ----------------|
A] --5-5-3--5-5-3-3|
D] -----0-00-0-0-0-|X6
Outro
G]--------------------------|
D] -------------------------|
A] -------------------------|
D] -12-12-12-12-12-12-12/0--|

G]-----------------|
D] ----------------|
A] --5-5-3--5-5-3-3|
D] -----0-00-0-0-0-|X4
Comments