Feeder - Spill Chords & Tabs

 

Spill Chords & Tabs

Feeder Chords & Tabs

Version: 1 Type: Tab 0 ratings
1 star 2 stars 3 stars 4 stars 5 stars
comments

Spill Tab

   
Band: Feeder
Song: Spill
Album: Suffocate CDS

Standard Tuning

P=Palm muted

Verse
E|--------------------------------------|
B|--------------------------------------|
G|--------------------------------------|
D|--44-4-44-4-44-4-44-4-44-4-44-4-44-5--|
A|--44-4-44-4-44-4-44-4-44-4-44-4-44-5--|
E|--22-0-22-0-22-0-22-0-22-0-22-0-22-3--|
repeat as needed

Chorus

e|-----------------------|
B|-----------------------|
G|-777-------------------|
D|-777-777-9999999999999-|
A|-555-777-9999999999999-|
E|-----555-7777777777777-|
   D5  A5  B5

repeat verse
repeat chorus

Bridge
e|-------------------|
B|-------------------|
G|-333/555-----------|
D|-333/555-666666666-|
A|-111/333-666666666-|
E|---------444444444-|
   Bb5 C5  Ab5
repeat as needed
[ Tab from: http://www.guitartabs.cc/tabs/f/feeder/spill_tab.html ]
Then 

e|-------0------0-------0------0----|
B|---------0------0-------0------0--|
G|----------------------------------|
D|--5-------------------------------|
A|--5-------------------------------|
E|--3--3------3-------3------3------|

then

e|--------------------------|
B|--------------------------|
G|--------------------------|
D|--6666666666666666666666--|
A|--6666666666666666666666--|
E|--4444444444444444444444--|
    PPPPPPPPPPPPPPPPPPPPPP

Last chorus:
e|----------------------------------------|
B|----------------------------------------|
G|-888------------------------------------|
D|-888-888-101010101010101010101010101010-|
A|-666-888-101010101010101010101010101010-|
E|---------8-8-8-8-8-8-8-8-8-8-8-8-8-8-8--|
   Eb5 Bb5 C5
repeat as needed

end scratching on your guitar :D
that's it! enjoy!
Comments