Feeder - Slowburn Chords & Tabs

 

Slowburn Chords & Tabs

Feeder Chords & Tabs

Version: 1 Type: Tab 0 ratings
1 star 2 stars 3 stars 4 stars 5 stars
comments

Slowburn Tab

   
Song: Slowburn
Band: Feeder

Tuning:standard

Intro:
e|---------------------------------------------------------------------|
B|---------------------------------------------------------------------|
G|--13-13-13-13-13-13-13-13-13-13-13-13-13-13-13-13-13-13-13-13-13-13--|
D|--0--0--0--0--0--0--0--0--0--0--0--0--0--0--0--0--0--0--0--0--0--0---|
A|---------------------------------------------------------------------|
E|---------------------------------------------------------------------|

Verse:
    D5
e|----------------------|just repeat it through all the verse
B|----------------------|
G|--777777777777777777--|
D|--777777777777777777--|
A|--555555555555555555--|
E|----------------------|

Break:

e|-------------------------| x2
B|-------------------------|
G|-------------------------|
D|--4444/77\2/4x4444/77\2--|
A|--4444/77\2/4x4444/77\2--|
E|--2222/55\0/2x2222/55\0--|

Chorus

Strum these chords:

e|---------------------------|
B|---------------------------|
G|---7-----------------------|
D|---7---7---5---9---4---3---|
A|---5---7---5---9---4---3---|
E|-------5---3---7---2---2---|

bridge/solo
[ Tab from: http://www.guitartabs.cc/tabs/f/feeder/slowburn_tab.html ]
e|---------------------------------------|x2
B|---------------------------------------|
G|--14-14-14-13-13-13-11-11-11-11-11-11--|
D|--0--0--0--0--0--0--0--0--0--0--0--0---|
A|---------------------------------------|
E|---------------------------------------|
then
e|--------------------------------------------------------|x2
B|--------------------------------------------------------|
G|--------------------------------------------------------|
D|--7-7-7-6-6-6-2-2-2-2-2-2--7-7-7-6-6-6-7-7-7-9-9-9-9-9--|
A|--0-0-0-0-0-0-0-0-0-0-0-0--0-0-0-0-0-0-0-0-0-0-0-0-0-0--|
E|--------------------------------------------------------|


break II

lead guitar
e|----10----9----10----9--|x3(continues in the next chorus)
B|--10----10---10----10---|
G|------------------------|
D|------------------------|
A|------------------------|
E|------------------------|

rythm guitar (comes in after the lead guitar part)
e|-------------------|
B|-------------------|
G|-------------------|
D|--9999-4444-55555--|
A|--9999-4444-55555--|
E|--7777-2222-33333--|

play it in this order:

intro
verse
break
verse
break
chorus
verse
break
verse
break
chorus x2
bridge/solo x2
break x2
break II
chorus x3
end on G5(let ring)

that's it!rate it :P
Comments