Feeder - Shatter Chords & Tabs

 

Shatter Chords & Tabs

Feeder Chords & Tabs

Version: 1 Type: Bass Tab 0 ratings
1 star 2 stars 3 stars 4 stars 5 stars
comments

Shatter Bass Tab

Verse

g|-----------------------------------------------|
d|-----------------------------------------------|
a|-33--33--33--33--333/66--66--66--66--/8--8--8--| 
e|-----------------------------------------------|
 
x 6

Chorus

g|---------------------------------------------------------|
d|---------------------------------------------------------|
a|--33333333333-----------------66666666666----------------|
e|----------------44444444444-----------------66666666666--|

x 2

Verse x 6

Chorus 2

g|---------------------------------------------------------|
d|---------------------------------------------------------|
a|--33333333333-----------------66666666666----------------|
e|----------------44444444444-----------------66666666666--|

g|---------------------------------------------------------|
d|---------------------------------------------------------|
a|--33333333333-----------------66666666666----------------|
e|----------------44444444444-----------------11111111111--|

g|---------------------------------------------------------|
d|---------------------------------------------------------|
a|--33333333333-----------------66666666666----------------|
e|----------------44444444444-----------------66666666666--|


Bridge
[ Tab from: http://www.guitartabs.cc/tabs/f/feeder/shatter_btab.html ]
g|-----------------------------------------------|
d|-----------------------------------------------|
a|--333--555--66/11-11-11-11--8--8--8-/11-11-11--|
e|-----------------------------------------------|

g|-----------------------------------------------|
d|-----------------------------------------------|
a|--333--555--66/11-11-11-11\8---8---8---8---8--|
e|----------------------------------------------|

g|-----------------------------------------------|
d|-----------------------------------------------|
a|--333--555--66/11-11-11-11--8--8--8-/11-11-11--|
e|-----------------------------------------------|

Final Pre-Chorus

g|----------------| 
d|----------------| 
a|-33--33--33--33-| 
e|----------------| 

Final Chorus

g|---------------------------------------------------------|
d|---------------------------------------------------------|
a|--33333333333-----------------66666666666----------------|
e|----------------44444444444-----------------66666666666--|

g|---------------------------------------------------------|
d|---------------------------------------------------------|
a|--33333333333-----------------66666666666----------------|
e|----------------44444444444-----------------11111111111--|

g|---------------------------------------------------------|
d|---------------------------------------------------------|
a|--33333333333-----------------66666666666----------------|
e|----------------44444444444-----------------66666666666--|


End On

g|----------------| 
d|----------------| 
a|----------------| 
e|--44444444444*--|

Let Ring

Well that's it, enjoy, rate and add any corrections
Comments