Feeder - Seven Days In The Sun Chords & Tabs

 

Seven Days In The Sun Chords & Tabs

Feeder Chords & Tabs

Version: 5 Type: Tab 0 ratings
1 star 2 stars 3 stars 4 stars 5 stars
comments

Seven Days In The Sun Tab

Artist:   Feeder
Title:    Seven Days In The Sun Live
Album:    Echo Park

This is how Grant Nicholas plays Seven Days In The Sun Live.
Powerchords are replaced by bar chords. This is a really nice
way to play it. You could just use 3 note powerchords like on
the album version though.

Intro:
E||------X---------------------------------------------|
B||------X---------------------------------------------|
G||------X-7-7-7-7-------------------------------------| X2
D||--5-5-X-7-7-7-7--7-7-7--10-10--9--8-----------------|
A||--5-5-X-5-5-5-5--7-7-7--10-10--9--8-----------------|
E||--3-3-X----------5-5-5---8--8--7--6-----------------|

Verse:
This repeated over and over.
E||--3-3-3-3--5-5-5-5--5-5-5-5--3-3-3-3----------------|
B||--3-3-3-3--5-5-5-5--5-5-5-5--3-3-3-3----------------|
G||--3-3-3-3--7-7-7-7--5-5-5-5--5-5-5-5----------------|
D||--5-5-5-5--7-7-7-7--7-7-7-7--5-5-5-5----------------|
A||--5-5-5-5--5-5-5-5--7-7-7-7--3-3-3-3----------------|
E||--3-3-3-3--5-5-5-5--5-5-5-5--3-3-3-3----------------|

Prechorus:
Lead Guitar
E||--------0-------------0--------------0--------------|
B||----------------------------------------------------|
G||----------6-------------7---------------6-----------|
D||------7-----7-------8-----8-------7-------7---------|
A||----7-------------8-------------7-------------------|
E||--5-------------6-------------5---------------------|

E||---------0--------0--------0------------------------|
B||----------------------------------------------------|
G||-----------7---7----7---7-----7---------------------|
D||------8------8--------8---------8-------------------|
A||----8-----------------------------------------------|
E||--6-------------------------------------------------|

Second Guitar (When Dean plays with the band)
E||----------------------------------------------------|
B||----------------------------------------------------|
G||----------------------------------------------------| X2
D||--7-7-7-7-7-7-7-7--10-10-10-10-10-10-10-10----------|
A||--7-7-7-7-7-7-7-7--10-10-10-10-10-10-10-10----------|
E||--5-5-5-5-5-5-5-5---8--8--8--8--8--8--8--8----------|

Chorus:
E||--3-3-3-3--5-5-5-5--5-5-5-5--3-3-3-3----------------|
B||--3-3-3-3--5-5-5-5--5-5-5-5--3-3-3-3----------------|
G||--3-3-3-3--7-7-7-7--5-5-5-5--5-5-5-5----------------| X4
D||--5-5-5-5--7-7-7-7--7-7-7-7--5-5-5-5----------------|
A||--5-5-5-5--5-5-5-5--7-7-7-7--3-3-3-3----------------|
E||--3-3-3-3--5-5-5-5--5-5-5-5--3-3-3-3----------------|

E||----------------------||--------X-------------------|
B||----------------------||--------X-------------------|
G||-----------7-7-7-7----||--------X-5-5-5-5-----------| X2
D||--5-5-5-5--7-7-7-7----||----7-7-X-5-5-5-5-----------|
A||--5-5-5-5--5-5-5-5----||----7-7-X-3-3-3-3-----------|
E||--3-3-3-3--5-5-5-5----||----5-5-X-3-3-3-3-----------|

Verse 2:
Again this played numerous times.
E||--3-3-3-3--5-5-5-5--5-5-5-5--3-3-3-3----------------|
B||--3-3-3-3--5-5-5-5--5-5-5-5--3-3-3-3----------------|
G||--3-3-3-3--7-7-7-7--5-5-5-5--5-5-5-5----------------|
D||--5-5-5-5--7-7-7-7--7-7-7-7--5-5-5-5----------------|
A||--5-5-5-5--5-5-5-5--7-7-7-7--3-3-3-3----------------|
E||--3-3-3-3--5-5-5-5--5-5-5-5--3-3-3-3----------------|

Prechorus:
Lead Guitar
E||--------0-------------0--------------0--------------|
B||----------------------------------------------------|
G||----------6-------------7---------------6-----------|
D||------7-----7-------8-----8-------7-------7---------|
A||----7-------------8-------------7-------------------|
E||--5-------------6-------------5---------------------|
[ Tab from: http://www.guitartabs.cc/tabs/f/feeder/seven_days_in_the_sun_tab_ver_5.html ]
E||---------0--------0--------0------------------------|
B||----------------------------------------------------|
G||-----------7---7----7---7-----7---------------------|
D||------8------8--------8---------8-------------------|
A||----8-----------------------------------------------|
E||--6-------------------------------------------------|

Second Guitar
E||----------------------------------------------------|
B||----------------------------------------------------|
G||----------------------------------------------------| X2
D||--7-7-7-7-7-7-7-7--10-10-10-10-10-10-10-10----------|
A||--7-7-7-7-7-7-7-7--10-10-10-10-10-10-10-10----------|
E||--5-5-5-5-5-5-5-5---8--8--8--8--8--8--8--8----------|

Chorus:
E||--3-3-3-3--5-5-5-5--5-5-5-5--3-3-3-3----------------|
B||--3-3-3-3--5-5-5-5--5-5-5-5--3-3-3-3----------------|
G||--3-3-3-3--7-7-7-7--5-5-5-5--5-5-5-5----------------| X6
D||--5-5-5-5--7-7-7-7--7-7-7-7--5-5-5-5----------------|
A||--5-5-5-5--5-5-5-5--7-7-7-7--3-3-3-3----------------|
E||--3-3-3-3--5-5-5-5--5-5-5-5--3-3-3-3----------------|

Interlude:
E||----------------------------------------------------|
B||----------------------------------------------------|
G||----------------------------------------------------|
D||--9-9-9-9-9-9-9-9--10-10-10-10-10-10-10-10----------|
A||--9-9-9-9-9-9-9-9--10-10-10-10-10-10-10-10----------|
E||--7-7-7-7-7-7-7-7---8--8--8--8--8--8--8--8----------|

E||----------------------------------------------------|
B||----------------------------------------------------|
G||----------------------------------------------------|
D||--5-5-5-5-5-5-5-5--9-9-9-9-9-9-9-9--10-10-10-10-10--|
A||--5-5-5-5-5-5-5-5--9-9-9-9-9-9-9-9--10-10-10-10-10--|
E||--3-3-3-3-3-3-3-3--7-7-7-7-7-7-7-7---8--8--8--8--8--|

E||----------------------------------------------------|
B||----------------------------------------------------|
G||----------------------------------------------------|
D||--10-10-10------------------------------------------|
A||--10-10-10------------------------------------------|
E||---8--8--8------------------------------------------|

E||----------------------||--------X-------------------|
B||----------------------||--------X-------------------|
G||-----------7-7-7-7----||--------X-5-5-5-5-----------| X2
D||--5-5-5-5--7-7-7-7----||----7-7-X-5-5-5-5-----------|
A||--5-5-5-5--5-5-5-5----||----7-7-X-3-3-3-3-----------|
E||--3-3-3-3--5-5-5-5----||----5-5-X-3-3-3-3-----------|

Verse 3:
E||----------------------------------------------------|
B||----------------------------------------------------|
G||----------------7------------------5----------------| X4
D||------5-------7---7------7-------5---5--------------|
A||----5---5---5----------7---7---3--------------------|
E||--3------------------5------------------------------|

Followed by this
E||--3-3-3-3--5-5-5-5--5-5-5-5--3-3-3-3----------------|
B||--3-3-3-3--5-5-5-5--5-5-5-5--3-3-3-3----------------|
G||--3-3-3-3--7-7-7-7--5-5-5-5--5-5-5-5----------------| X4
D||--5-5-5-5--7-7-7-7--7-7-7-7--5-5-5-5----------------|
A||--5-5-5-5--5-5-5-5--7-7-7-7--3-3-3-3----------------|
E||--3-3-3-3--5-5-5-5--5-5-5-5--3-3-3-3----------------|

Outro:
E||----------------------------------------------------|
B||----------------------------------------------------|
G||-----------7-7-7-7-----------5-5-5-5----------------| X4
D||--5-5-5-5--7-7-7-7--7-7-7-7--5-5-5-5----------------|
A||--5-5-5-5--5-5-5-5--7-7-7-7--3-3-3-3----------------|
E||--3-3-3-3-----------5-5-5-5-------------------------|

Finish on this
E||----------------------------------------------------|
B||----------------------------------------------------|
G||----------------------------------------------------| 
D||--5-------------------------------------------------|
A||--5-------------------------------------------------|
E||--3-------------------------------------------------|

Comments