Feeder - Seven Days In The Sun Chords & Tabs

 

Seven Days In The Sun Chords & Tabs

Feeder Chords & Tabs

Version: 4 Type: Tab 0 ratings
1 star 2 stars 3 stars 4 stars 5 stars
comments

Seven Days In The Sun Tab

   
1) Power Chords
  E5       F5        F#5 G5  G#5 A5       A#5 B5  C5  C#5 D5       D#5
|----------------------------------------------------------------------|
|--------------------------------------------------------------3-------|
|------9--------10--------------------2---3---4---5---6---7----2---8---|
|-2----9---3----10---4---5---6---7----2---3---4---5---6---7-or-0---8---|
|-2-or-7---3-or--8---4---5---6---7-or-0---1---2---3---4---5--------6---|
|-0--------1---------2---3---4---5-------------------------------------|
[ Tab from: http://www.guitartabs.cc/tabs/f/feeder/seven_days_in_the_sun_tab_ver_4.html ]
2) Major Chords (bar chords except for F not included)
  E   F   G   A   B   C   D
|-0---1---3---0---2---0---2-|
|-0---1---0---2---4---1---3-|
|-1---2---0---2---4---0---2-|
|-2---3---0---2---4---2---0-|
|-2---3---2---0---2---3-----|
|-0---1---3-----------0-----|

3) Minor Chords
  Em  Fm  Gm  Am  Bm  Cm  Dm
|-0---1---3---0---2---3---1-|
|-0---1---3---1---3---4---3-|
|-0---1---3---2---4---5---2-|
|-2---3---0---2---4---5---0-|
|-2---3-------0-------------|
|-0---1---------------------|



Feeder
Seven Days In The Sun

This is my first tab and its much easier than i thought!
This song is simply:-

 G5, D5, A5, C5   These are all power chords as you can
                  tell From above

                  I never bothered to learn the quite 
                  bit, i just like the rocky bit :)

E-Mail me - Ralston3@hotmail.com
Comments