Feeder - Seven Days In The Sun Chords & Tabs

 

Seven Days In The Sun Chords & Tabs

Feeder Chords & Tabs

Version: 1 Type: Tab 0 ratings
1 star 2 stars 3 stars 4 stars 5 stars
comments

Seven Days In The Sun Tab

   
Tabbed By: Dale Weekes
Date: 17/4/01
Artist: Feeder
Song Title: Seven Day In The Sun

Standard tuning.

INTRO: (Dist.)
|---------------------------------------|
|---------------------------------------|
|----------7-7-7------------------------|
|---5-5-5--7-7-7----7-7-7--10-10-10--9-8|
|---5-5-5--5-5-5----7-7-7--10-10-10--9-8|
|---3-3-3-----------5-5-5--8--8--8---7-6| x2

VERSE: (Clean)
|-----------------------------------------|
|-----------------------------------------|
|------------7-7-7-7----------------------|
|---5-5-5-5--7-7-7-7--7-7-7-7--10-10-10-10|
|---5-5-5-5--5-5-5-5--7-7-7-7--10-10-10-10|
|---3-3-3-3-----------5-5-5-5--8--8--8--8-| Repeat...
[ Tab from: http://www.guitartabs.cc/tabs/f/feeder/seven_days_in_the_sun_tab.html ]
PRE-CHORUS: (Clean)
          A                        C
|-----------0-----------|-----------0--------|
|-------------2---------|--------------1-----|
|--------2-------2------|--------0--------0--|
|-----2-----------------|-----2--------------|
|--0--------------------|--3-----------------|
|-----------------------|--------------------| x2

CHORUS: (Dist.)
|-----------------------------------------|
|-----------------------------------------|
|------------7-7-7-7----------------------|
|---5-5-5-5--7-7-7-7--7-7-7-7--10-10-10-10|
|---5-5-5-5--5-5-5-5--7-7-7-7--10-10-10-10|
|---3-3-3-3-----------5-5-5-5--8--8--8--8-|

POST-CHORUS: (Dist.)
Same as intro.

Well thats it really, you can play the bridge this way:
 B		 C		  G D/F# Em  B		   C
E|-2--2--2--2--|--3--3--3--3--|--3--2-----|--2--2--2--2--|--3--3--3--3-|
B|-4--4--4--4--|--5--5--5--5--|--0--3-----|--4--4--4--4--|--5--5--5--5-|
G|-4--4--4--4--|--5--5--5--5--|--0--2--0--|--4--4--4--4--|--5--5--5--5-|
D|-4--4--4--4--|--5--5--5--5--|--0--0--2--|--4--4--4--4--|--5--5--5--5-|
A|-2--2--2--2--|--3--3--3--3--|--2--0--2--|--2--2--2--2--|--3--3--3--3-|
e|-2--2--2--2--|--3--3--3--3--|--3--2--0--|--2--2--2--2--|--3--3--3--3-|

E-mail any comments on the song to dale_weekes@yahoo.co.uk
==========================================================
Comments