Feeder - Satellite News Chords & Tabs

 

Satellite News Chords & Tabs

Feeder Chords & Tabs

Version: 1 Type: Bass Tab 0 ratings
1 star 2 stars 3 stars 4 stars 5 stars
comments

Satellite News Bass Tab

This is the first song ive ever tabbed, and iv only been playing 
bass for a month, so sorry if its wrong, (im pretty sure the 2nd 
chorus is wrong)
RIP Jon Lee 1968-2002

Intro
G-----------------------------
D--------0-0000--------0-0000-
A-0-0000--------0-0000--------
E-----------------------------

verse 1
G-----------------------------
D--------0-0000--------0-0000-  x2
A-0-0000--------0-0000--------
E-----------------------------

G-----------------------------
D-----------------------------
A-0---04750-5750---04750-5540-
E-----------------------------

G-----------------------------
D-----------------------------
A-04750-5750---04750-5540-----
E-----------------------------

Pre-Chorus
G--------------------
D----------00000000--
A-00000000-----------
E--------------------

Chorus
G---------------------------------
D-----------------0-0-0-0-0-0-0-0-  x4
A-0-0-0-0-7-7-7-7-----------------
E---------------------------------
[ Tab from: http://www.guitartabs.cc/tabs/f/feeder/satellite_news_btab.html ]
Verse 2
G-----------------------------
D-----------------------------
A-0---04750-5750---04750-5540-
E-----------------------------

G-----------------------------
D-----------------------------  x2
A-04750-5750---04750-5540-----
E-----------------------------

Pre-Chorus
G--------------------
D----------00000000--  
A-00000000-----------
E--------------------

Chorus
G---------------------------------
D-----------------0-0-0-0-0-0-0-0-  x8
A-0-0-0-0-7-7-7-7-----------------
E---------------------------------

G----------------------
D--------0-0000--------
A-0-0000--------0-0000-
E----------------------

Pre-Chorus
G--------------------
D----------00000000--  
A-00000000-----------
E--------------------

Chorus
G---------------------------------
D-----------------0-0-0-0-0-0-0-0-  x9
A-0-0-0-0-7-7-7-7-----------------
E---------------------------------

G-----------------------------
D-----------------------------
A-0---04750-5750---04750-5540-
E-----------------------------

G-----------------------------
D-----------------------------
A-04750-5750---04750-5540-----
E-----------------------------
Comments