Feeder - Rhubarb Chords & Tabs

 

Rhubarb Chords & Tabs

Feeder Chords & Tabs

Version: 1 Type: Tab 0 ratings
1 star 2 stars 3 stars 4 stars 5 stars
comments

Rhubarb Tab

Band   : Feeder
Song   : Rhubarb
Album  : Tangerine CDS


Original Tab By Alistair Knock

Intro: Muted clicks

Verse:

e|------------------------|repeat as needed
B|------------------------|
G|--9-------9--9----------|
D|--9--8-8--9--9--8-8--8--|
A|--7--8-8--7--7--8-8--8--|
E|-----6-6--------6-6--6--|

Bridge:

e|------------------------|
B|------------------------|
G|--9-------9--9----------|
D|--9--7-7--9--9--7-7--7--|
A|--7--7-7--7--7--7-7--7--|
E|--0--5-5--0--0--5-5--5--|

Chorus:

e|------------------------------------------------------------------|
B|------------------------------------------------------------------|
G|------------------------------------------------------------------|
D|--9-9-9-9-9-9-9-9111111-7-7-7-7-7-9-9-9-9-9-9-9-9111111-7-7-7-7-7-|
A|--9-9-9-9-9-9-9-9111111-7-7-7-7-7-9-9-9-9-9-9-9-9111111-7-7-7-7-7-|
E|--7-7-7-7-7-7-7-7-9-9-9-5-5-5-5-5-7-7-7-7-7-7-7-7-9-9-9-5-5-5-5-5-|
[ Tab from: http://www.guitartabs.cc/tabs/f/feeder/rhubarb_tab.html ]
e|------------------------------------------------------------------|
B|------------------------------------------------------------------|
G|------------------------------------------------------------------|
D|--9-9-9-9-9-9-9-9111111-7-7-7-7-7-9-9-9-9-9-9-9-9111111-7-7-7-7-7-|
A|--9-9-9-9-9-9-9-9111111-7-7-7-7-7-9-9-9-9-9-9-9-9111111-7-7-7-7-7-|
E|--7-7-7-7-7-7-7-7-9-9-9-5-5-5-5-5-7-7-7-7-7-7-7-7-9-9-9-5-5-5-5-5-|

e|------------------------------------------------------------------|
B|------------------------------------------------------------------|
G|------------------------------------------------------------------|
D|--9-9-9-9-9-9-9-9111111-7-7-7-7-7-9-9-9-9-9-9-9-9111111-7-7-7-7-7-|
A|--9-9-9-9-9-9-9-9111111-7-7-7-7-7-9-9-9-9-9-9-9-9111111-7-7-7-7-7-|
E|--7-7-7-7-7-7-7-7-9-9-9-5-5-5-5-5-7-7-7-7-7-7-7-7-9-9-9-5-5-5-5-5-|

e|--------------------------------------------------------------|---|
B|--------------------------------------------------------------|---|
G|--------------------------------------------------------------|---|
D|--9-9-9-9-9-9-9-9111111-7-7-7-7-7-9-9-9-9-9-9-9-9-7-----------|-5-|
A|--9-9-9-9-9-9-9-9111111-7-7-7-7-7-9-9-9-9-9-9-9-9-7-----------|-5-|
E|--7-7-7-7-7-7-7-7-9-9-9-5-5-5-5-5-7-7-7-7-7-7-7-7-5-----------|-3-|
Comments