Feeder - Pushing The Senses Chords & Tabs

 

Pushing The Senses Chords & Tabs

Feeder Chords & Tabs

Version: 2 Type: Tab 0 ratings
1 star 2 stars 3 stars 4 stars 5 stars
comments

Pushing The Senses Tab

   
----------------------------------------------------------------------------
Ive seen grant play it and he uses a capo. this is my version of the song without a
capo... it sounds pretty good i think. i havnt seen another tab for this song so i dont
know how correct it is, so corrections are welcome. its pretty easy to figure out the
order.

standard tuning (e a d g b e)

Intro

E|---------------------5---| 
B|---1----1--1--1----------| 
G|-------0--0--0----4-5----| 
D|--2---3--3--3----5-------| 
A|-0-----------------------| 
E|-------------------------|      x2 


Main Riff

     Am   F         g
E|---------------------------|
B|--111----------------------|
G|--222----------------------|
D|--222-33333333333-55-------|
A|--000-33333333333-55-------|
E|------11111111111-33-------|

    Am  F           C  g   d       F
E|----------------------------------------------------|
B|--111-----------------------------------------------|
G|--222-------------55----77777777-1010101010101010---|
D|--222-33333333333-55-55-77777777-1010101010101010---|
A|--000-33333333333-33-55-55555555-8 8 8 8 8 8 8 8----|
E|------11111111111----33-----------------------------|

Riff 2

E|--------------------------------------------| 
B|-5--6--6--6------5--6--6--6-----------------| 
G|--5--5--5--5-7----5--5--5--5-7--------------| 
D|--------------------------------------------| 
A|--------------------------------------------| 
E|--------------------------------------------| 

Verse
[ Tab from: http://www.guitartabs.cc/tabs/f/feeder/pushing_the_senses_tab_ver_2.html ]
     Am   F         g
E|---------------------------|
B|--111----------------------|
G|--222----------------------|
D|--222-33333333333-55-------|
A|--000-33333333333-55-------|
E|------11111111111-33-------|

Pre Chorus
(not sure)

Chorus

     Am   F         g
E|---------------------------|
B|--111----------------------|
G|--222----------------------|
D|--222-33333333333-55-------|
A|--000-33333333333-55-------|
E|------11111111111-33-------|

    Am  F           C  g   Am   F         g    d        F
E|---------------------------------------------------------------------|
B|--111-------------------111------------------------------------------|
G|--222-------------55----222-----------------77777777-101010101010----|
D|--222-33333333333-55-55-222-33333333333-555-77777777-101010101010----|
A|--000-33333333333-33-55-000-33333333333-333-55555555-8 8 8 8 8 8 ----|
E|------11111111111----33-----11111111111-333--------------------------|


solo/interlude bit

E|-------------------------------------| 
B|10-10-10-8-8-8-6-6-6-5-5-5-5-5-5-5---| 
G|-------------------------------------| 
D|-------------------------------------| 
A|-------------------------------------|
E|-------------------------------------|

E|-------------------------------------------|
B|-13 13 13 13 13 13 13----------------------| 
G|-14 14 14 14 14 14 14---1010101010101010---| 
D|-14 14 14 14 14 14 14---1010101010101010---| 
A|------------------------8 8 8 8 8 8 8 8 ---| 
E|-------------------------------------------|
Comments