Feeder - Pilgrim Soul Chords & Tabs

 

Pilgrim Soul Chords & Tabs

Feeder Chords & Tabs

Version: 2 Type: Tab 0 ratings
1 star 2 stars 3 stars 4 stars 5 stars
comments

Pilgrim Soul Tab

   
--------------------------------------------------------------------
                      FEEDER - PILGRIM SOUL
--------------------------------------------------------------------

Tabbed by: BOK
E-mail: blood_rivet@hotmail.com

My first tab =D

Tuning: STANDARD (E)
NOTE: Played on capo fret 4

Riff 1
e|------------------------------------------------------------------|x3
B|------------------------------------------------------------------|
G|------------------------------------------------------------------|
D|-0-0-0-0-0-0-0-0-0-0-0-0-0-0-0-0--2-2-2-2-2-2-2-2-2-2-2-2-2-2-2-2-|
A|-2-2-2-2-2-2-2-2-2-2-2-2-2-2-2-2--2-2-2-2-2-2-2-2-2-2-2-2-2-2-2-2-|
E|-3-3-3-3-3-3-3-3-3-3-3-3-3-3-3-3--0-0-0-0-0-0-0-0-0-0-0-0-0-0-0-0-|

Riff 2
e|-3-3-3-3-3-3-3-3-3-3-3-3-3-3-3-3--0-0-0-0-0-0-0-0-0-0-0-0-0-0-0-0-|x2
B|-3-3-3-3-3-3-3-3-3-3-3-3-3-3-3-3--0-0-0-0-0-0-0-0-0-0-0-0-0-0-0-0-|
G|-0-0-0-0-0-0-0-0-0-0-0-0-0-0-0-0--0-0-0-0-0-0-0-0-0-0-0-0-0-0-0-0-|
D|-0-0-0-0-0-0-0-0-0-0-0-0-0-0-0-0--2-2-2-2-2-2-2-2-2-2-2-2-2-2-2-2-|
A|-2-2-2-2-2-2-2-2-2-2-2-2-2-2-2-2--2-2-2-2-2-2-2-2-2-2-2-2-2-2-2-2-|
E|-3-3-3-3-3-3-3-3-3-3-3-3-3-3-3-3--0-0-0-0-0-0-0-0-0-0-0-0-0-0-0-0-|

x2 (On second time only play both riffs once)

Lead-up to chorus (strumming)

e|-0-0-0-0-0-0-0-0--0-0-0-0-0-0-0-0-|x2
B|-1-1-1-1-1-1-1-1--1-1-1-1-1-1-1-1-|
G|-0-0-0-0-0-0-0-0--0-0-0-0-0-0-0-0-|
D|-2-2-2-2-2-2-2-2--2-2-2-2-2-2-2-2-|
A|-0-0-0-0-0-0-0-0--3-3-3-3-3-3-3-3-|
E|----------------------------------|

Chorus (strumming)
[ Tab from: http://www.guitartabs.cc/tabs/f/feeder/pilgrim_soul_tab_ver_2.html ]
e|-0-0-0-0-0-0-0-0--3-3-3-3-3-3-3-3-3--2-2-2-2-2-2-2-2-2--0-0-0-0-0-0-0-0-0|
B|-3-3-3-3-3-3-3-3--3-3-3-3-3-3-3-3-3--3-3-3-3-3-3-3-3-3--1-1-1-1-1-1-1-1-1|
G|-0-0-0-0-0-0-0-0--0-0-0-0-0-0-0-0-0--2-2-2-2-2-2-2-2-2--0-0-0-0-0-0-0-0-0|
D|-2-2-2-2-2-2-2-2--0-0-0-0-0-0-0-0-0--0-0-0-0-0-0-0-0-0--2-2-2-2-2-2-2-2-2|
A|-3-3-3-3-3-3-3-3--2-2-2-2-2-2-2-2-2---------------------3-3-3-3-3-3-3-3-3|
E|-0-0-0-0-0-0-0-0--3-3-3-3-3-3-3-3-3---------------------0-0-0-0-0-0-0-0-0|

Bridge

PART 1
e|-------------------------------------|x2
B|-------------------------------------|
G|-------5-5-5-------4-4-4-4-4-4-4-4-4-|
D|-2-2-2-5-5-5-5-5-5-4-4-4-4-4-4-4-4-4-|
A|-2-2-2-3-3-3-5-5-5-2-2-2-2-2-2-2-2-2-|
E|-0-0-0-------3-3-3-------------------|

PART 2

e|--------------------------------------------------|x2
B|--------------------------------------------------|
G|--------------------5-5-5-------4-4-4-4-4-4-4-4-4-|
D|-22222222-00000000--5-5-5-5-3-3-4-4-4-4-4-4-4-4-4-|
A|-22222222-00000000--3-3-3-5-3-3-2-2-2-2-2-2-2-2-2-|
E|-00000000-00000000--------3-3-3-------------------|


Ending

e|----------------------------------------------------------------|
B|----------------------------------------------------------------|
G|-------5-5-5-------4-4-4-4-4-4-4--------5-5-5-------4-4-4-------|
D|-2-2-2-5-5-5-5-5-5-4-4-4-4-4-4-4--2-2-2-5-5-5-5-5-5-4-4-4-2-0-2-|
A|-2-2-2-3-3-3-5-5-5-2-2-2-2-2-2-2--2-2-2-3-3-3-5-5-5-2-2-2-2-0-2-|
E|-0-0-0-------3-3-3----------------0-0-0-------3-3-3-------0-0-0-|
Comments