Feeder - Piece By Piece Chords & Tabs

 

Piece By Piece Chords & Tabs

Feeder Chords & Tabs

Version: 2 Type: Tab 0 ratings
1 star 2 stars 3 stars 4 stars 5 stars
comments

Piece By Piece Tab

ARTIST: FEEDER
SONG: PEICE BY PEICE
TRANSCRIBED BY PAUL MCCARTHY

I THINK THIS IS THE RIFF THAT GOES PRETTY MUCH ALL THE WAY THROUGH THE SONG
BUT I'M NOT 100% SURE IT'S TOTALLY CORRECT, ANYWAY IT SOUNDS ABOUT RIGHT
[ Tab from: http://www.guitartabs.cc/tabs/f/feeder/piece_by_piece_tab_ver_2.html ]
E------------------------------------
A--3-----------------1-----------------
D-----------1-----------------3--------
G-----0--------0--------0--------0-------
B--------4--------4--------4------------4p3------
e-----------------------------------4p3-------------------


E------------------------------------
A--3-----------------1-----------------
D-----------1-----------------3--------
G-----0--------0--------0--------0-------
B--------4--------1--------4------------4p3------
e-----------------------------------4p3-------------------

ANY CORRECTIONS, ADDITIONS OR OR GENERAL COMENTS PLEASE SEND TO
KORINA62@AOL.COM......CHEERS
Comments