Feeder - Oxygen Chords & Tabs

 

Oxygen Chords & Tabs

Feeder Chords & Tabs

Version: 3 Type: Tab 0 ratings
1 star 2 stars 3 stars 4 stars 5 stars
comments

Oxygen Tab

   
Feeder - Oxygen

Tabbed by Chris Ford 

Its simple................


E--------------------------------------
B--------------------------------------
G------0-----0---0------0-----0---0----
D----4-----4----------5-----5----------
A--2-----2-----2----3-----3-----3------
E--------------------------------------

This little riff is repeated throughout
the intro, and the verses...

CHORUS: Simple chords: G D Am C.
[ Tab from: http://www.guitartabs.cc/tabs/f/feeder/oxygen_tab_ver_3.html ]
this is the way he actually plays it, so
I'm not just giving you an easy way out!

The bridge(which happens twice):

E---x------------------------
B---x------------------------
G---6-(x16)-6-(x16)-6--------
D---x-------6-------7--------
A-----------4-------7--------
E-----------4-------5--------
                    YEAH!!

This is repeated a couple of times 
at each occurrence.

I have only seen or heard the live version of this,
so it might not correspond correctly with any other
version anyone has.
Comments