Feeder - Oxygen Chords & Tabs

 

Oxygen Chords & Tabs

Feeder Chords & Tabs

Version: 2 Type: Tab 1 rating
1 star 2 stars 3 stars 4 stars 5 stars
comments

Oxygen Tab

   
     Song:	Oxygen
   Artist:	Feeder
    Album:	Echo Park
Tabbed By:	Daniel Brits  (daniel_b11@hotmail.com)



Intro/Verse
e|-------------------------|------------------------|
B|-------------------------|------------------------|
G|-------0---------0-----0-|-------0--------0-----0-|
D|----4------4-------------|----5-----5-------------|
A|-2------------2-----2----|-3-----------3-----3----|
E|-------------------------|------------------------|



Chorus
  [G]     [D]    [Am]     [C]
e|---3---|---2---|---0---|---0---|
B|---0---|---3---|---1---|---1---|
G|---0---|---2---|---2---|---0---|
D|---0---|---0---|---2---|---2---|
A|---2---|---X---|---0---|---3---|
E|---3---|---X---|---X---|---X---|



Bridge
e|---------------------------------------------------|
B|---------------------------------------------------|
G|-6-6-6-6-6-6-6-6--6-6-6-6-6-6-6-6--6-6-6-6-6-6-6-6-|
D|-6-6-6-6-6-6-6-6--6-6-6-6-6-6-6-6--6-6-6-6-6-6-6-6-|
A|---------------------------------------------------|
E|---------------------------------------------------|

e|---------------------|
B|---------------------|
G|---------------------|
D|-5-5-5-5-5-5-5-5-5-5-|
A|-5-5-5-5-5-5-5-5-5-5-|
E|-3-3-3-3-3-3-3-3-3-3-|
[ Tab from: http://www.guitartabs.cc/tabs/f/feeder/oxygen_tab_ver_2.html ]
e|--------------------------------------------------------------------|
B|--------------------------------------------------------------------|
G|-6-6-6-6-6-6-6-6--6-6-6-6-6-6-6-6--6-6-6-6-6-6-6-6--6-6-6-6-6-6-6-6-|
D|-6-6-6-6-6-6-6-6--6-6-6-6-6-6-6-6--6-6-6-6-6-6-6-6--6-6-6-6-6-6-6-6-|
A|--------------------------------------------------------------------|
E|--------------------------------------------------------------------|

e|-------------------------------------------------------------------------------------|
B|-------------------------------------------------------------------------------------|
G|------------------7-7-7-7-7-7-7-7--7-7-7-7-7-7-7-7--6-6-6-6-6-6-6-6--6-6-6-6-6-6-6-6-|
D|-5-5-5-5-5-5-5-5--7-7-7-7-7-7-7-7--7-7-7-7-7-7-7-7--6-6-6-6-6-6-6-6--6-6-6-6-6-6-6-6-|
A|-5-5-5-5-5-5-5-5--5-5-5-5-5-5-5-5--5-5-5-5-5-5-5-5--4-4-4-4-4-4-4-4--4-4-4-4-4-4-4-4-|
E|-3-3-3-3-3-3-3-3---------------------------------------------------------------------|



NOTE:	I have looked at some of the other tabs and they all have the Intro/Verse
	tabbed liked this:

e|------------------------|------------------------|
B|------------------------|------------------------|
G|-------0----------------|-------0----------------|
D|----4-----4-----4-----4-|----5-----5-----5-----5-|
A|-2-----------2-----2----|-3-----------3-----3----|
E|------------------------|------------------------|

	This is INCORRECT!!
	I have a live clip of Feeder performing 'Oxygen' and therefore the way I've tabbed
	the Intro/Verse IS correct!!
	Just listen carefully and you'll hear that the 3rd string picked is the same as
	the 6th and 8th strings picked in each bar/measure, or whatever!
Comments