Feeder - Oxygen Chords & Tabs

 

Oxygen Chords & Tabs

Feeder Chords & Tabs

Version: 1 Type: Bass Tab 0 ratings
1 star 2 stars 3 stars 4 stars 5 stars
comments

Oxygen Bass Tab

   
Artist - Feeder
Song - Oxygen
Album - Echo Park (April 2001) - Echo
Bassist - Taka Hirose
Notes - Standard Tuning [EADG]
Tabbed By - Oriol [uri_13_@hotmail.com]

~ --> let ring

Intro (No Bass)

Chorus

G:----------------------------------------------------------------------|
D:----------------------------------------------------------------------|
A:-----------------5-5-5-5-5-5-5-5-5------------------3-3-3-3-3-3-3-3-3-|
E:-3-3-3-3-3-3-3-3-------------------5-5-5-5-5-5-5-5--------------------|

G:----------------------------------------------------------------------|
D:----------------------------------------------------------------------|
A:-----------------5-5-5-5-5-5-5-5-5------------------3-3-3-3-3-3-3-3-3-|
E:-3-3-3-3-3-3-3-3-------------------5-5-5-5-5-5-5-5--------------------|

Verse

G:--------------------------------|
D:--------------------------------|
A:--------------------------------|
E:-2-22-2-22-2-2----3-33-3-33-3-3-| until chorus

Chorus

G:----------------------------------------------------------------------|
D:----------------------------------------------------------------------|
A:-----------------5-5-5-5-5-5-5-5-5------------------3-3-3-3-3-3-3-3-3-|
E:-3-3-3-3-3-3-3-3-------------------5-5-5-5-5-5-5-5--------------------|

G:--------------------------------------------------------------------|
D:--------------------------------------------------------------------|
A:-----------------5-5-5-5-5-5-5-5-5------------------3-3-2-3-4-3-2-1-|
E:-3-3-3-3-3-3-3-3-------------------5-5-5-5-5-5-5-5------------------|

G:----------------------------------------------------------------------|
D:----------------------------------------------------------------------|
A:-----------------5-5-5-5-5-5-5-5-5------------------3-3-3-3-3-3-3-3-3-|
E:-3-3-3-3-3-3-3-3-------------------5-5-5-5-5-5-5-5--------------------| x2

Interlude
[ Tab from: http://www.guitartabs.cc/tabs/f/feeder/oxygen_btab.html ]
G:----------------------------------|
D:----------------------------------|
A:----------------------------------|
E:-00000000000000004444444444444444-

G:--------------------------------------------------|
D:--------------------------------------------------|
A:--------------------------------------------------|
E:-000000000000000000000000000000004444444444444444-

G:----------------------------------|
D:----------------------------------|
A:----------------------------------|
E:-00000000000000004444444444444444-

Verse

G:--------------------------------|
D:--------------------------------|
A:--------------------------------|
E:-2-22-2-22-2-2----3-33-3-33-3-3-|

Last time

G:---------------------|
D:---------------------|
A:---------------------|
E:-2-22-2-22-2-2----3~-|

Chorus

G:----------------------------------------------------------------------|
D:----------------------------------------------------------------------|
A:-----------------5-5-5-5-5-5-5-5-5------------------3-3-3-3-3-3-3-3-3-|
E:-3-3-3-3-3-3-3-3-------------------5-5-5-5-5-5-5-5--------------------|

G:--------------------------------------------------------------------|
D:--------------------------------------------------------------------|
A:-----------------5-5-5-5-5-5-5-5-5------------------3-3-2-3-4-3-2-1-|
E:-3-3-3-3-3-3-3-3-------------------5-5-5-5-5-5-5-5------------------|

G:----------------------------------------------------------------------|
D:----------------------------------------------------------------------|
A:-----------------5-5-5-5-5-5-5-5-5------------------3-3-3-3-3-3-3-3-3-|
E:-3-3-3-3-3-3-3-3-------------------5-5-5-5-5-5-5-5--------------------|

G:------------------------------------------------------|
D:------------------------------------------------------|
A:-----------------5-5-5-5-5-5-5-5-5------------------3-|
E:-3-3-3-3-3-3-3-3-------------------5-5-5-5-5-5-5-5----|
Comments