Feeder - Love Pollution Chords & Tabs

 

Love Pollution Chords & Tabs

Feeder Chords & Tabs

Version: 1 Type: Tab 0 ratings
1 star 2 stars 3 stars 4 stars 5 stars
comments

Love Pollution Tab

   
Love Pollution by Feeder
tabbed by Andy Chow (copyright 2003)

(Cap on fret during the whole song)

Intro(Lead Guitar)

1---10-10-----11-11-------11-10-9----10-10-----11-11-
2-11-----11------------------------11------11--------
3----------12--------------------------------12------
4----------------------------------------------------
5----------------------------------------------------
6----------------------------------------------------

play the lead again after the strumming part is repeated 3 times

(strumming part)

G-320000
C-032010
Em-022000
A#-002230

-G--------C--------------C-Em-A#--G--------C-------- X4 

Strum it as above, follow the lead part!


Pre-chorus

Lead guitar

1---10--10--11--11--------------11--11-10--10--11--11-----------------------------
2-11--11--11--11--11-13-11-13-11--11-----11--11--11--11-13-11-13-11-13-11-13-11---
3---------------------------------------------------------------------------------
4---------------------------------------------------------------------------------
5---------------------------------------------------------------------------------
6---------------------------------------------------------------------------------

(Strumming part)

--Em------C-------A#----------C--------Em------C-----A#--------------------------




Chorus

Lead guitar

1---------------
2-11-10---------
3------10------- x20 ( this might sounds weird     
4---------------       but just keep playing til	
5---------------       you repeat 20 times      )		
6---------------

(Strumming Part)

G----Em----A#----C x 3
After you've repeated 3 times you strum this

G---Em-----A#----------

Then all back to the intro again, but the lead starts 1 bar later
Starts at : you sell you soul to be another.... 

After that it goes to pre-chorus again, then Chorus.
[ Tab from: http://www.guitartabs.cc/tabs/f/feeder/love_pollution_tab.html ]
Then SOLO:

1-6-6-3-8-3---------------11-10-8---------6-6-3-8------8-(slide to 10)-10-10-10-----------
2-6-6-3-8-3---------------11-10-8---------6-6-3-8------8-(slide to 10)-10-10-10-----------
3-----------------------------------------------------------------------------------------
4-----------------------------------------------------------------------------------------
5-----------------------------------------------------------------------------------------
6-----------------------------------------------------------------------------------------

1-(slide to 11)-11-(slide to 13)-13--------6-6-3-8-3---------------11-10-8---------6-6-3-8-
2-(slide to 11)-11-(slide to 13)-13--------6-6-3-8-3---------------11-10-8---------6-6-3-8-
3------------------------------------------------------------------------------------------
4------------------------------------------------------------------------------------------
5------------------------------------------------------------------------------------------
6------------------------------------------------------------------------------------------

1-8-(slide to 10)-10-10-10-(slide to 11)-11-(slide to 15)-13
2-8-(slide to 10)-10-10-10-(slide to 11)-11-(slide to 15)-13
3-----------------------------------------------------------
4-----------------------------------------------------------
5-----------------------------------------------------------
6-----------------------------------------------------------

Strum the intro during the Solo. After Solo strum the intro again, as it gets into pre-chorus do the same as above and so is the chrous then the ending bit goes like this:-

1--------
2-11-10--
3------10  Repeat til track stops.
4--------
5--------
6--------


This Is the Full version of the song Love pollution by Feeder. Enjoy it and play it.

P.S Feeder Rocks!!!!




















Comments