Feeder - Just The Way Im Feeling Chords & Tabs

 

Just The Way Im Feeling Chords & Tabs

Feeder Chords & Tabs

Version: 4 Type: Tab 0 ratings
1 star 2 stars 3 stars 4 stars 5 stars
comments

Just The Way Im Feeling Tab

   
Standard tuning - E A D G B E

   Verses

  Guitar 1 - from the start and through all the verses.

e|------0-0-0--0-0-0---0-0-0--0-0---0-0-0--0-0----0-0-0-----
B|------3-3-3--3-3-3---3-3-3--3-3---3-3-3--3-3----3-3-3-----
G|------4-4-4--4-4-4---4-4-4--4-4---4-4-4--4-4----4-4-4-----
D|------x-x-x--x-x-x---x-x-x--2-2---2-2-2--0-0----0-0-0-----  
A|--2-2-2-2-2--2-2-2---2-2-2--0-0---0-0-0--x-x----x-x-x-----
E|-----------------------------------------3-3----3-3-3-----


  Guitar 2 - comes in after 'find the feeling'

e|-----5-----5---5------5-------5----|--
B|---3-----3----------3-------3---3--|--
G|-4-----4-----4----2-----2-0--------|--
D|-----------------------------------|--
A|-----------------------------------|--
E|-----------------------------------|--


  Bridge
[ Tab from: http://www.guitartabs.cc/tabs/f/feeder/just_the_way_im_feeling_tab_ver_4.html ]
e|-----------------------------------------------------------------
B|-----------------------------------------------------------------
G|---------------------------------4-4-4-4-4-4-4-4-----------------
D|-4-4-4-4-4-4-4-4-5-5-5-5-5-5-5-5-4-4-4-4-4-4-4-4-5-5-5-5-5-5-5-5-
A|-4-4-4-4-4-4-4-4-5-5-5-5-5-5-5-5-2-2-2-2-2-2-2-2-5-5-5-5-5-5-5-5-
E|-2-2-2-2-2-2-2-2-3-3-3-3-3-3-3-3-----------------3-3-3-3-3-3-3-3-

e|-----------------------------------------------------
B|-----------------------------------------------------
G|-----------------------------------------------------
D|-4-4-4-4-4-4-4-4--5----------------------------------
A|-4-4-4-4-4-4-4-4--5----------------------------------
E|-2-2-2-2-2-2-2-2--3----------------------------------


  Chorus

 Guitar 1

e|--------------------------------------------------
B|--------------------------------------------------
G|-2-2-2-2-4-4-4-4----------------------------------
D|-2-2-2-2-4-4-4-4-5-5-5-5-4-4-4-4------------------
A|-0-0-0-0-2-2-2-2-5-5-5-5-4-4-4-4------------------
E|-----------------3-3-3-3-2-2-2-2------------------


   Guitar 2

e|-10----10----10----12----10----10----10----12---------
B|----10----10----10----10----10----10----10----10------
G|------------------------------------------------------
D|------------------------------------------------------
A|------------------------------------------------------
E|------------------------------------------------------
Comments