Feeder - Just The Way Im Feeling Chords & Tabs

 

Just The Way Im Feeling Chords & Tabs

Feeder Chords & Tabs

Version: 1 Type: Tab 0 ratings
1 star 2 stars 3 stars 4 stars 5 stars
comments

Just The Way Im Feeling Tab

   
Just the way i'm feeling - Feeder

Bare minimum here and my first tab so there is bound to be a
few mistakes, anyway here it is.

intro and verse.
  D                      A             G
e-5-5-5-5-5-5-5-5-5-5-5--5-5-5-5-5-5-5-3-3-3-3-3-3-
B-5-5-5-5-5-5-5-5-5-5-5--5-5-5-5-5-5-5-3-3-3-3-3-3-
G-7-7-7-7-7-7-7-7-7-7-7--6-6-6-6-6-6-6-4-4-4-4-4-4-
D--------------------------------------------------
A--------------------------------------------------
E--------------------------------------------------
[ Tab from: http://www.guitartabs.cc/tabs/f/feeder/just_the_way_im_feeling_tab.html ]
prechorus (torn in two)
e-----9-10-----9--10-----9--10----9-10-------------
B-10-------10--------10--------10------------------
G--------------------------------------------------
D--------------------------------------------------
A--------------------------------------------------
E--------------------------------------------------

Chorus
e--------------------------------------------------
B--------------------------------------------------
G-7-7-7-7-7-7--------------------------------------
D-7-7-7-7-7-7-7-7-7-7-7-7-5-5-5-5-5-5--------------
A-5-5-5-5-5-5-7-7-7-7-7-7-5-5-5-5-5-5--------------
E-------------5-5-5-5-5-5-3-3-3-3-3-3--------------



this is basically it. I'm not sure about the D chord 
in the intro but it sounds alright when i play along to the 
record. any suggestions or comments email me at 
existence11@hotmail.com. use a bridge humbucker for the powerchords
and an acoustic for intro and verse (should be played on 2 guitars)

:-)
Comments