Feeder - Just The Way Im Feeling Chords & Tabs

 

Just The Way Im Feeling Chords & Tabs

Feeder Chords & Tabs

Version: 2 Type: Bass Tab 0 ratings
1 star 2 stars 3 stars 4 stars 5 stars
comments

Just The Way Im Feeling Bass Tab

+------------------------------------------------------------+
+ BAND    : Feeder                                           +
+ ALBUM   : Comfort In Sound                                 +
+ SONG    : Just The Way I'm Feeling                         +
+ TABBER  : Mellowbassfunkster(@mail.com)                    +
+------------------------------------------------------------+
+ STANDARD SYMBOLS                                           +
+     h - hammer on                                          +
+     p - pull off                                           +
+     b - bend string up                                     +
+     r - release bend                                       +
+     / - slide up                                           +
+     \ - slide down                                         +
+     v - vibrato (sometimes written as ~)                   +
+     t - tap (with strumming hand)                          +
+     x - muted, struck string                               +
+------------------------------------------------------------+
+ NOTES                                                      +
+------------------------------------------------------------+

INTRO & VERSE (x3) (start at 0:22)
G|-------11------9-11------9--------7-------------------------
D|---9-9----9--9-------7-7---7--5-5---5-----------------------
A|------------------------------------------------------------
E|------------------------------------------------------------
[ Tab from: http://www.guitartabs.cc/tabs/f/feeder/just_the_way_im_feeling_btab_ver_2.html ]
G|-------11------9-11------9----------------------------------|
D|---9-9----9--9-------7-7---7--5-5-5--4----------------------|
A|------------------------------------------------------------|
E|------------------------------------------------------------|

PRE-CHORUS 1
G|------------------------------------------------------------|
D|--44444444-55555555-99999999-77777777-44444444-5------------|
A|------------------------------------------------------------|
E|------------------------------------------------------------|

CHORUS 1 (x4)
G|------------------------|
D|--7777-9999-5555-4444---|
A|------------------------|
E|------------------------|

--->play VERSE (x3)

PRE-CHORUS 2
G|--------------------------------|
D|--44444444-55555555-99999999-5--|
A|--------------------------------|
E|--------------------------------|

--->play CHORUS 1 (x5)

BRIDGE
G|------------------------------------------------------------
D|--9999-7777-55555555-7777-9-5-55555555----------------------
A|------------------------------------------------------------
E|------------------------------------------------------------

G|------------------------------------------------------------|
D|--9999-7777-5555-4444-22222-4-5-5555555-22222-4-5~----------|
A|------------------------------------------------------------|
E|------------------------------------------------------------|

--->play CHORUS 1 (x7)

CHORUS 2
G|------------------------|
D|--7777-9999-5~----------|
A|------------------------|
E|------------------------|
Comments