Feeder - Just The Way Im Feeling Chords & Tabs

 

Just The Way Im Feeling Chords & Tabs

Feeder Chords & Tabs

Version: 1 Type: Bass Tab 0 ratings
1 star 2 stars 3 stars 4 stars 5 stars
comments

Just The Way Im Feeling Bass Tab

   
Feeder - Just The Way I'm Feeling
Submitted By: Dan
EMail: argybahji@hotmail.com


Very nice song from the very nice new album... here it is, more or less

You may want to play the chorus up an octave from what i have put or
play the other parts down, as im quite sure they are all in the same 
octave but i couldnt decide which one sounded best. Hmmm


[Verse] ('Love In, Love out...')
G|-----11---9---9-11-------9--------7-----------------------------
D|-9-9----9---9--------7-7--7---5-5---5---------------------------
A|----------------------------------------------------------------
E|----------------------------------------------------------------

[ Tab from: http://www.guitartabs.cc/tabs/f/feeder/just_the_way_im_feeling_btab.html ]
[Pre-Chorus] ('Torn in two...')                   
G|----------------------------------------------------------------
D|-4-4-4-4-4-4-4-4-5-5-5-5-5-5-5-5-9-9-9-9-9-9-9-9-5--------------
A|----------------------------------------------------------------
E|----------------------------------------------------------------

	{first time round, play this too}
G|----------------------------------------------
D|-5-5-5-5-5-5-5-4-4-4-4-4-4-4-4-5--------------
A|----------------------------------------------
E|----------------------------------------------


[Chorus] ('And i fear it's going down...')
G|----------------------------------------------------------------
D|----------------------------------------------------------------
A|----------------------------------------------------------------
E|-5-5-5-5-5-5-5-5-7-7-7-7-7-7-7-7-3-3-3-3-3-3-3-3-2-2-2-2-2-2-2-2

G|----------------------------------------------------------------
D|----------------------------------------------------------------
A|-------------------------------------------------5-5-5-5-5-5-5-5
E|-5-5-5-5-5-5-5-5-7-7-7-7-7-7-7-7-3-3-3-3-3-3-3-3----------------


Structure:
==================
Verse		x6
Pre-Chorus	x1
Chorus		x2
Verse		x6
Pre-Chorus	x1
Chorus		x2
Chorus		x4
Comments