Feeder - Just A Day Chords & Tabs

 

Just A Day Chords & Tabs

Feeder Chords & Tabs

Version: 6 Type: Tab 0 ratings
1 star 2 stars 3 stars 4 stars 5 stars
comments

Just A Day Tab

   
-------------------
JUST A DAY - FEEDER
-------------------

Transcribed By Joe Swindells

Intro:
e|-----------------------------------| 
B|-7-7-5-5-7-7-5---7-7-5-5-7B9-7-5---|
G|---------------4-----------------6-|
D|-----------------------------------|
A|-----------------------------------|
E|-----------------------------------|

e|-----------------------------------| 
B|-7-7-5-5-7-7-5---7-7-5-5-7B9-7-5---|G
G|---------------4-----------------6-|T
D|-----------------------------------|R
A|-----------------------------------|1
E|-----------------------------------|
 |                                   |
e|-----------------------------------|
B|-----------------------------------|G
G|-----------------------------------|T
D|-7-7-7-7-7-7-7-7-7-2-2-2-2-2-2-2-2-|R
A|-7-7-7-7-7-7-7-7-7-2-2-2-2-2-2-2-2-|2
E|-5-5-5-5-5-5-5-5-5-0-0-0-0-0-0-0-0-|
[ Tab from: http://www.guitartabs.cc/tabs/f/feeder/just_a_day_tab_ver_6.html ]
Verse:
e|-----------------------------------| 
B|-----------------------------------|G
G|-----------------------------------|T
D|-4-4-2-2--4-4-2----4-4-2-2-4B6-4---|R
A|----------------2----------------4-|1
E|-----------------------------------|
 |                                   |
e|-----------------------------------|
B|-----------------------------------|G
G|-----------------------------------|T
D|-7-7-7-7-7-7-7-7-7-2-2-2-2-2-2-2-2-|R
A|-7-7-7-7-7-7-7-7-7-2-2-2-2-2-2-2-2-|2
E|-5-5-5-5-5-5-5-5-5-0-0-0-0-0-0-0-0-|

Bridge:
E|-0-0-0-0-0-0-0-0-0-0-0-0-0-0-0-0-0-0-0-0-0-0-| 
B|-4-5-5-5-5-4-5-5-5-5-4-5-5-5-5-4-5-5-5-2-0-0-|
G|---------------------------------------------|
D|---------------------------------------------|
A|---------------------------------------------|
E|---------------------------------------------|

Chorus:
e|-0-0-0-0-0-0-0-0-0-0-0-0-0--0--0-0--| 
B|-9-9-9-9-9-7-7-7-7-7-10-10-10-10-10-|
G|------------------------------------|
D|------------------------------------|
A|------------------------------------|
E|------------------------------------| 

Middle 8: (sorry can't be arsed to tab out the strumming 
pattern but you get the idea)
e|---------------|
B|---------------|
G|-4-5-7-9-11-12-| 
D|---------------|
A|-2-3-5-7-9--10-| 
E|---------------|

e|--------------------------------|
B|--------------------------------|
G|-5--7-------X-X-X-X-7--5--------|
D|-5--7--5--7-X-X-X-X-7--5--5--7--|
A|-3--5--5--7-X-X-X-X-5--3--5--7--|
E|-------3--5-X-X-X-X-------3--5--|
Comments