Feeder - Just A Day Chords & Tabs

 

Just A Day Chords & Tabs

Feeder Chords & Tabs

Version: 2 Type: Tab 0 ratings
1 star 2 stars 3 stars 4 stars 5 stars
comments

Just A Day Tab

   
ARTIST - FEEDER
SONG - JUST A DAY
TRANSCRIBED BY PAUL MCCARTHY


INTRO

E-----------------------------------
A-----------------------------------
D-----------------------------------
G---------------4-----------------6-
B-7-7-5-5-7-7-5---7-7-5-5-7B9-7-5---
e-----------------------------------

THEN I'M NOT SURE WHETHER IT'S BASS, ANOTHER GUITAR OR BOTH THAT 
KICK IN AT THIS POINT SO I'LL JUST PUT THE GUITAR VERSION.  THE 
ABOVE IS REPEATED OVER

E-5-5-5-5-5-5-5-5-5-0-0-0-0-0-0-0-0-
A-7-7-7-7-7-7-7-7-7-2-2-2-2-2-2-2-2-
D-7-7-7-7-7-7-7-7-7-2-2-2-2-2-2-2-2-

VERSE

THE POWER CHORDS ABOVE ARE PLAYED THROUGH THE VERSE

I THINK THERE'S ANOTHER GUITAR I CAN'T FIGURE IT OUT
BUT THIS SOUNDS PRETTY GOOD

E---------------
A---------------2---------------4-----
D-4-4-2-2-4-4-2---4-4-2-2-4B6-4----------
G---------------
B--------------
e--------------

BRIDGE
[ Tab from: http://www.guitartabs.cc/tabs/f/feeder/just_a_day_tab_ver_2.html ]
I PLAY IT LIKE THIS, USING THE BOTTOM STRING TO MAKE THE
SOUND A BIT STRONGER, SOUNDS OK TOO

E------------------------------
A------------------------------
D-----------------------------
G------------------------------
B-4-5-5-5-5-4-5-5-5-5-4-5-5-5-5-4-5-5-5-2-0-0
E-0-0-0-0-0-0-0-0-0-0-0-0-0-0-0-0-0-0-0-0-0-0


CHOURUS

E-------------------------
A-------------------------
D-------------------------
G-------------------------
B-9-9-9-9-9-7-7-7-7-7-10-10-10-10-10----------
e-0-0-0-0-0-0-0-0-0-0-0-0-0--0--0-0-----

MIDDLE EIGHT


(I HAVN'T PUT THE CORRECT STRUM 
PATTERN BUT U'LL GET THE IDEA)
E---------
A-2-3-5-7-9--10--
D--------
G-4-5-7-9-11-12-

E-------3--5-X-X-X-X-------3--5---------
A-3--5--5--7-X-X-X-X-5--3--5--7-------------
D-5--7--5--7-X-X-X-X-7--5--5--7-------------
G-5--7-------X-X-X-X-7--5-------------
B-------------------------
e-------------------------

PLEASE SEND ANY CORRECTIONS, ADDITIONS
ETC TO KORINA62@AOL.COM CHEERS
















Comments