Feeder - Just A Day Chords & Tabs

 

Just A Day Chords & Tabs

Feeder Chords & Tabs

Version: 11 Type: Tab 0 ratings
1 star 2 stars 3 stars 4 stars 5 stars
comments

Just A Day Tab

   
Tabbed by Matt
Sorry bout the length
-------------------------------------------------------------------------------
                         Just A Day -  Feeder
-------------------------------------------------------------------------------


Intro Part A Guitar 1
e|----------------|----------------|----------------|----------------|
B|----------------|----------------|----------------|----------------|
G|----11--11--9---|9---11--11--9---|----11--11--9---|9--/13--11--9---|
D|----------------|----------------|9---------------|----------------|
A|----------------|----------------|----------------|----------------|
E|----------------|----------------|----------------|----------------|

e|----------------|----------------|----------------|----------------|
B|----------------|----------------|----------------|----------------|
G|----11--11--9---|9---11--11--9---|----11--11--9---|9--/13--11--9---|
D|11--------------|----------------|9---------------|----------------|
A|----------------|----------------|----------------|----------------|
E|----------------|----------------|----------------|----------------|

e|----------------|----------------|----------------|----------------|
B|----------------|----------------|----------------|----------------|
G|----11--11--9---|9---11--11--9---|----11--11--9---|9--/13--11--9---|
D|11--------------|----------------|9---------------|----------------|11
A|----------------|----------------|----------------|----------------|
E|----------------|----------------|----------------|----------------|

Intro Part B Guitar 2 (come after Guitar 1 has played 4 bars)
  A5                                E5
e|----------------|----------------|----------------|----------------|
B|----------------|----------------|----------------|----------------|
G|----------------|----------------|----------------|----------------|x2 
D|7---7---7-7-7-7-|--7-7---7-7-7---|2---2---2-2-2-2-|--2-2---2-2-2---|for
A|7---7---7-7-7-7-|--7-7---7-7-7---|2---2---2-2-2-2-|--2-2---2-2-2---|intro
E|5---5---5-5-5-5-|--5-5---5-5-5---|0---0---0-0-0-0-|--0-0---0-0-0---|

Verse
Guitar 2 plays Intro Part B 4x

Pre Chorus Part A Guitar 1
e|----------------|----------------|----------------|----------------|
B|----------------|----------------|----------------|----------------|
G|8---9-9-9-9-9-9-|8---9-9-9-9-9-9-|8---9-9-9-9-9-9-|8---9-9-9-9-9-9-|
D|----------------|----------------|----------------|----------------|x2
A|----------------|----------------|----------------|----------------|
E|----------------|----------------|----------------|----------------|

Pre Chorus Part B Guitar 2
  C#m              A5               E5
e|----------------|----------------|----------------|----------------|
B|5---5---5-5-5-5-|----------------|----------------|----------------|
G|6---6---6-6-6-6-|----------------|----------------|----------------|
D|6---6---6-6-6-6-|7---7---7-7-7-7-|2---2---2-2-2-2-|--2-2---2-2-2---|
A|4---4---4-4-4-4-|7---7---7-7-7-7-|2---2---2-2-2-2-|--2-2---2-2-2---|
E|----------------|5---5---5-5-5-5-|0---0---0-0-0-0-|--0-0---0-0-0---|

  C#m              G#5              A5
e|----------------|----------------|----------------|----------------|
B|5---5---5-5-5-5-|----------------|----------------|----------------|
G|6---6---6-6-6-6-|----------------|----------------|----------------|
D|6---6---6-6-6-6-|6---6---6-6-6-6-|7---7---7-7-7-7-|--7-7---7-7-7---|
A|4---4---4-4-4-4-|6---6---6-6-6-6-|7---7---7-7-7-7-|--7-7---7-7-7---|
E|----------------|4---4---4-4-4-4-|5---5---5-5-5-5-|--5-5---5-5-5---|

Chorus Part A Guitar 3
e|----------------|----------------|5-5-5-5-5-5-5-5-|5-5-5-5-5-5-5-5-|
B|9-9-9-9-9-9-9-9-|7-7-7-7-7-7-7-7-|5-5-5-5-5-5-5-5-|5-5-5-5-5-5-5-5-|
G|9-9-9-9-9-9-9-9-|9-9-9-9-9-9-9-9-|----------------|----------------|
D|----------------|----------------|----------------|----------------|
A|----------------|----------------|----------------|----------------|
E|----------------|----------------|----------------|----------------|

e|----------------|----------------|----------------|----------------|
B|9-9-9-9-9-9-9-9-|7-7-7-7-7-7-7-7-|7-7-7-7-7-7-7-7-|5-5-5-5-5-5-5-5-|
G|9-9-9-9-9-9-9-9-|9-9-9-9-9-9-9-9-|9-9-9-9-9-9-9-9-|6-6-6-6-6-6-6-6-|
D|----------------|----------------|----------------|----------------|
A|----------------|----------------|----------------|----------------|
E|----------------|----------------|----------------|----------------|

e|----------------|----------------|5-5-5-5-5-5-5-5-|5-5-5-5-5-5-5-5-|
B|9-9-9-9-9-9-9-9-|7-7-7-7-7-7-7-7-|5-5-5-5-5-5-5-5-|5-5-5-5-5-5-5-5-|
G|9-9-9-9-9-9-9-9-|9-9-9-9-9-9-9-9-|----------------|----------------|
D|----------------|----------------|----------------|----------------|
A|----------------|----------------|----------------|----------------|
E|----------------|----------------|----------------|----------------|

Chorus Part A Guitar 3 1st time ending
e|----------------|----------------|----------------|----------------|
B|9-9-9-9-9-9-9-9-|7-7-7-7-7-7-7-7-|7--hold---------|----------------|
G|9-9-9-9-9-9-9-9-|9-9-9-9-9-9-9-9-|9---------------|----------------|
D|----------------|----------------|----------------|----------------|
A|----------------|----------------|----------------|----------------|
E|----------------|----------------|----------------|----------------|


Chorus Part B Guitar 2
  E5               B5               A5
e|----------------|----------------|----------------|----------------|
B|----------------|----------------|----------------|----------------|
G|----------------|----------------|----------------|----------------|
D|2---2---2-2-2-2-|9---9---9-9-9-9-|7---7---7-7-7-7-|--7-7---7-7-7---|
A|2---2---2-2-2-2-|9---9---9-9-9-9-|7---7---7-7-7-7-|--7-7---7-7-7---|
E|0---0---0-0-0-0-|7---7---7-7-7-7-|5---5---5-5-5-5-|--5-5---5-5-5---|

  C#m              E5               B5               A5
e|----------------|----------------|----------------|----------------|
B|5---5---5-5-5-5-|----------------|----------------|----------------|
G|6---6---6-6-6-6-|----------------|----------------|----------------|
D|6---6---6-6-6-6-|2---2---2-2-2-2-|9---9---9-9-9-9-|7---7---7-7-7-7-|
A|4---4---4-4-4-4-|2---2---2-2-2-2-|9---9---9-9-9-9-|7---7---7-7-7-7-|
E|----------------|0---0---0-0-0-0-|7---7---7-7-7-7-|5---5---5-5-5-5-|

  E5               B5               A5
e|----------------|----------------|----------------|----------------|
B|----------------|----------------|----------------|----------------|
G|----------------|----------------|----------------|----------------|
D|2---2---2-2-2-2-|9---9---9-9-9-9-|7---7---7-7-7-7-|--7-7---7-7-7---|
A|2---2---2-2-2-2-|9---9---9-9-9-9-|7---7---7-7-7-7-|--7-7---7-7-7---|
E|0---0---0-0-0-0-|7---7---7-7-7-7-|5---5---5-5-5-5-|--5-5---5-5-5---|


Chorus Part B Guitar 2 1st time ending
  C#m              F#5              A5
e|----------------|----------------|----------------|----------------|
B|5---5---5-5-5-5-|----------------|----------------|----------------|
G|6---6---6-6-6-6-|----------------|----------------|----------------|
D|6---6---6-6-6-6-|4---4---4-4-4-4-|7---------------|----------------|
A|4---4---4-4-4-4-|4---4---4-4-4-4-|7-hold----------|----------------|
E|----------------|2---2---2-2-2-2-|5---------------|----------------|


Intro Part C Guitar 1 
e|----------------|----------------|----------------|----------------|
B|----------------|----------------|----------------|----------------|
G|----11--11--9---|9---11--11--9---|----11--11--9---|9--/13--11--9---|
D|----------------|----------------|9---------------|----------------|
A|----------------|----------------|----------------|----------------|
E|----------------|----------------|----------------|----------------|

e|----------------|----------------|----------------|----------------|
B|----------------|----------------|----------------|----------------|
G|----11--11--9---|9---11--11--9---|----11--11--9---|9--/13----------|
D|11--------------|----------------|9---------------|----------------|
A|----------------|----------------|----------------|----------------|
E|----------------|----------------|----------------|----------------|

Guitar 2 plays Intro Part B x1

Intro Part E Guitar 2
  A5                                E5
e|----------------|----------------|----------------|----------------|
B|----------------|----------------|----------------|----------------|
G|----------------|----------------|----------------|----------------|
D|7---7---7-7-7-7-|--7-7---7-7-7---|2---2---2-2-2-2-|----------------|
A|7---7---7-7-7-7-|--7-7---7-7-7---|2---2---2-2-2-2-|----------------|
E|5---5---5-5-5-5-|--5-5---5-5-5---|0---0---0-0-0-0-|----------------|


Guitar 2 plays Verse
[ Tab from: http://www.guitartabs.cc/tabs/f/feeder/just_a_day_tab_ver_11.html ]
Half Way thourgh Verse 2 Guiatr 1 plays 
e|----------------|----------------|----------------|----------------|
B|----------------|----------------|----------------|----------------|
G|----11--11--9---|9---11--11--9---|----11--11--9---|9--/13--11--9---|
D|----------------|----------------|9---------------|----------------|
A|----------------|----------------|----------------|----------------|
E|----------------|----------------|----------------|----------------|

e|----------------|----------------|----------------|----------------|
B|----------------|----------------|----------------|----------------|
G|----11--11--9---|9---11--11--9---|----11--11--9---|9--/13--11--9---|
D|11--------------|----------------|9---------------|----------------|
A|----------------|----------------|----------------|----------------|
E|----------------|----------------|----------------|----------------|

Guitar 3 plays Pre Chorus Part A
Guitar 2 plays Pre Chorus Part B

Guitar 3 plays Chorus Part A
Guitar 2 plays Chorus Part B

Chorus Part A Guitar 3 2nd time ending
e|----------------|----------------|----------------|----------------|
B|9-9-9-9-9-9-9-9-|7-7-7-7-7-7-7-7-|7-7-7-7-7-7-7-7-|5-5-5-5-5-5-5-5-|
G|9-9-9-9-9-9-9-9-|9-9-9-9-9-9-9-9-|9-9-9-9-9-9-9-9-|6-6-6-6-6-6-6-6-|
D|----------------|----------------|----------------|----------------|
A|----------------|----------------|----------------|----------------|
E|----------------|----------------|----------------|----------------|

Chorus Part B Guitar 2 2nd time ending
  C#m              F#5              A5
e|----------------|----------------|----------------|----------------|
B|5---5---5-5-5-5-|----------------|----------------|----------------|
G|6---6---6-6-6-6-|----------------|----------------|----------------|
D|6---6---6-6-6-6-|4---4---4-4-4-4-|7---7---7-7-7-7-|--7-7---7-7-7---|
A|4---4---4-4-4-4-|4---4---4-4-4-4-|7---7---7-7-7-7-|--7-7---7-7-7---|
E|----------------|2---2---2-2-2-2-|5---5---5-5-5-5-|--5-5---5-5-5---|

Fill A Guitar 3
e|----------------|----------------|
B|5-5-5-5-5-5-5-5-|5-5-5-5-5-5-5-5-|
G|6-6-6-6-6-6-6-6-|6-6-6-6-6-6-6-6-|
D|----------------|----------------|
A|----------------|----------------|
E|----------------|----------------|

Fill B Guitar 2
  A5
e|----------------|----------------|
B|----------------|----------------|
G|----------------|----------------|
D|7---7---7-7-7-7-|--7-7---7-7-7-7-|
A|7---7---7-7-7-7-|--7-7---7-7-7-7-|
E|5---5---5-5-5-5-|--5-5---5-5-5-5-|

Bridge Part A Guitar 1
e|----------------|----------------|----------------|----------------|
B|----------------|----------------|----------------|--7-7-7-7-7-7-7-|
G|9-9-9-8-8-8-6-6-|6-4-4-4-4-4-4-4-|9-9-9-8-8-8-9-9-|9---------------|
D|----------------|----------------|----------------|----------------|
A|----------------|----------------|----------------|----------------|
E|----------------|----------------|----------------|----------------|

e|----------------|----------------|----------------|----------------|
B|----------------|----------------|----------------|--7-7-7-9-9-9-9-|
G|9-9-9-8-8-8-6-6-|6-4-4-4-4-4-4-4-|9-9-9-8-8-8-9-9-|9---------------|
D|----------------|----------------|----------------|----------------|
A|----------------|----------------|----------------|----------------|
E|----------------|----------------|----------------|----------------|

e|----------------|----------------|----------------|----------------|
B|----------------|----------------|----------------|--7-7-7-7-7-7-7-|
G|9-9-9-8-8-8-6-6-|6-4-4-4-4-4-4-4-|9-9-9-8-8-8-9-9-|9---------------|
D|----------------|----------------|----------------|----------------|
A|----------------|----------------|----------------|----------------|
E|----------------|----------------|----------------|----------------|

Bridge Part B Guitar 2 (hold throughout)
  B5    C#5   G#5    A5             C'5   B5    G#5    A5
e|----------------|----------------|----------------|----------------|
B|----------------|----------------|----------------|----------------|
G|----------------|----------------|----------------|----------------|
D|9-----11----6---|--7-------------|11----9-----6---|--7-------------|x3
A|9-----11----6---|--7-------------|11----9-----6---|--7-------------|
E|7-----9-----4---|--5-------------|9-----7-----4---|--5-------------|

Middle (Quiet Chorus)
Guitar 3 plays Chorus Part A with 2nd time ending

While Guitar 2 does plays this
e|----------------|----------------|----------------|----------------|
B|----------------|----------------|----------------|----------------|
G|----------------|----------------|----------------|----------------|
D|----------------|----------------|----------------|----------------|
A|----------------|----------------|----------------|----------------|
E|0-0-0-0-0-0-0-0-|7-7-7-7-7-7-7-7-|5-5-5-5-5-5-5-5-|5-5-5-5-5-5-5-5-|
  PM.................................................................|

e|----------------|----------------|----------------|----------------|
B|----------------|----------------|----------------|----------------|
G|----------------|----------------|----------------|----------------|
D|----------------|----------------|----------------|----------------|
A|4-4-4-4-4-4-4-4-|----------------|----------------|----------------|
E|----------------|0-0-0-0-0-0-0-0-|7-7-7-7-7-7-7-7-|5-5-5-5-5-5-5-5-|
  PM.................................................................|

e|----------------|----------------|----------------|----------------|
B|----------------|----------------|----------------|----------------|
G|----------------|----------------|----------------|----------------|
D|----------------|----------------|----------------|----------------|
A|----------------|----------------|----------------|----------------|
E|0-0-0-0-0-0-0-0-|7-7-7-7-7-7-7-7-|5-5-5-5-5-5-5-5-|5-5-5-5-5-5-5-5-|
  PM.................................................................|

e|----------------|----------------|----------------|----------------|
B|----------------|----------------|----------------|----------------|
G|----------------|----------------|----------------|----------------|
D|----------------|----------------|----------------|----------------|
A|4-4-4-4-4-4-4-4-|----------------|----------------|----------------|
E|----------------|2-2-2-2-2-2-2-2-|5-5-5-5-5-5-5-5-|5-5-5-5-5-5-5-5-|
  PM.................................................................|

Guitar 3 plays Chorus Part A with 2nd time ending whole thing 2x
Guitar 2 plays Chorus Part B with 2nd time ending whole thing 2x

Chorus Part C Guitar 1 (comes in the 2nd time round the final chorus)
e|----------------|----------------|----------------|----------------|
B|----------------|----------------|----------------|----------------|
G|----11--11--9---|9---11--11--9---|9---11--11--9---|9--/13--11--9---|
D|----------------|----------------|----------------|----------------|
A|----------------|----------------|----------------|----------------|
E|----------------|----------------|----------------|----------------|

e|----------------|----------------|----------------|----------------|
B|----------------|----------------|----------------|----------------|
G|----11--11--9---|9---11--11--9---|9---11--11--9---|9--/13--11--9---|
D|9---------------|----------------|----------------|----------------|x3
A|----------------|----------------|----------------|----------------|
E|----------------|----------------|----------------|----------------|

Outro Part A Guitars 1+3
e|----------------|----------------|----------------|----------------|
B|----------------|----------------|----------------|----------------|
G|9---11--11--9---|9---11--11--9---|9--/13--11--9---|----11--11--9---|
D|----------------|----------------|----------------|11--------------|
A|----------------|----------------|----------------|----------------|
E|----------------|----------------|----------------|----------------|

e|----------------|----------------|----------------|----------------|
B|----------------|----------------|----------------|----------------|
G|9---11--11--9---|9---11--11--9---|9--/13--11--9---|----------------|
D|----------------|----------------|----------------|11--------------|
A|----------------|----------------|----------------|----------------|
E|----------------|----------------|----------------|----------------|


Outro Part B Guitar 2
  A5
e|----------------|----------------|----------------|----------------|
B|----------------|----------------|----------------|----------------|
G|----------------|----------------|----------------|----------------|
D|7---7-7-7---7---|7---7-7-7---7---|7---7-7-7---7---|7---7-7-7---7---|
A|7---7-7-7---7---|7---7-7-7---7---|7---7-7-7---7---|7---7-7-7---7---|
E|5---5-5-5---5---|5---5-5-5---5---|5---5-5-5---5---|5---5-5-5---5---|

  A5
e|----------------|----------------|----------------|----------------|
B|----------------|----------------|----------------|----------------|
G|----------------|----------------|----------------|----------------|
D|7---7-7-7---7---|7---7-7-7---7---|7---7-7-7---7---|7---------------|
A|7---7-7-7---7---|7---7-7-7---7---|7---7-7-5---7---|7---------------|
E|5---5-5-5---5---|5---5-5-5---5---|5---5-5-5---5---|5---------------|


-------------------------------------------------------------------------------
Comments