Feeder - Just A Day Chords & Tabs

 

Just A Day Chords & Tabs

Feeder Chords & Tabs

Version: 5 Type: Bass Tab 0 ratings
1 star 2 stars 3 stars 4 stars 5 stars
comments

Just A Day Bass Tab

   
Artist - Feeder
Song - Just a Day
Album - Just a Day EP - Echo
Bassist - Taka Hirose
Notes - Standard Tuning [EADG]
Tabbed By - Oriol [uri_13_@hotmail.com]

Intro:

G:-----------------------------------|
D:-----------------------------------|
A:-----------------------------------|
E:-5-55-4545-555-454-0-000000-0-2244-| x2

Verse:

G:-----------------------------------|
D:-----------------------------------|
A:-----------------------------------|
E:-5-55-4545-555-454-0-000000-0-2244-|

G:---------------------------------------|
D:---------------------------------999-7-|
A:------------------------------777------|
E:-5-55-4545-555-454-0-000000-0----------|

G:-----------------------------------|
D:-----------------------------------|
A:-----------------------------------|
E:-5-55-4545-555-454-0-000000-0-2244-|

G:------------------------------------|
D:------------------------------------|
A:----------------------------7-77767-|
E:-5-55-4545-555-454-0-000000---------|

Pre-Chorus:

G:------------------------------------|
D:-------4-6-7-77776------------------|
A:-4-444---------------7-676----7-676-|
E:-------------------00------00-------|

G:--------------------------------------|
D:--------------------------------------|
A:-4-4-444-----------------/12-12-12-12-|
E:---------4-4-444-5-5-544--------------|

Chorus:

G:---------------------------------------------------------------|
D:---------------------------------------------------------------|
A:---------2-2-222---------------4-4-4-4-7-7-676-----------------|
E:-0-0-000---------55-454-55-457-----------------7-7-676-5-5-5-4-|

G:------------------------------------------------------|
D:---------------------------------------2--------------|
A:---------2-2-222---------------4-4-4-4----------------|
E:-0-0-000---------55-454-55-457-----------2-2-2-2-4h5~-|

Pre-verse:

G:-----------------------------------|
D:-----------------------------------|
A:-----------------------------------|
E:-5-55-4545-555-454-0-000000-0-2244-|

G:-----------------------------------|
D:-----------------------------------|
A:-----------------------------------|
E:-5-55-4545-555-454-0-000000-0-224--|

Verse:
G:-----------------------------------|
D:-----------------------------------|
A:-----------------------------------|
E:-5-55-4545-555-454-0-000000-0-2244-|

G:---------------------------------------|
D:---------------------------------999-7-|
A:------------------------------777------|
E:-5-55-4545-555-454-0-000000-0----------|

G:-----------------------------------|
D:-----------------------------------|
A:-----------------------------------|
E:-5-55-4545-555-454-0-000000-0-2244-|

G:------------------------------------|
D:------------------------------------|
A:----------------------------7-77767-|
E:-5-55-4545-555-454-0-000000---------|
[ Tab from: http://www.guitartabs.cc/tabs/f/feeder/just_a_day_btab_ver_5.html ]
Pre-Chorus
G:------------------------------------|
D:-------4-6-7-77776------------------|
A:-4-444---------------7-676----7-676-|
E:-------------------00------00-------|

G:--------------------------------------|
D:--------------------------------------|
A:-4-4-444-----------------/12-12-12-12-|
E:---------4-4-444-5-5-544--------------|

Chorus:
G:---------------------------------------------------------------|
D:---------------------------------------------------------------|
A:---------2-2-222---------------4-4-4-4-7-7-676-----------------|
E:-0-0-000---------55-454-55-457-----------------7-7-676-5-5-5-4-|

G:--------------------------------------------------------|
D:---------------------------------------2----------------|
A:---------2-2-222---------------4-4-4-4------------------|
E:-0-0-000---------55-454-55-457-----------2-2-2-2-4h555*-|  *until bridge

Bridge:
G:------------------------|
D:------------------------|
A:-------------------\12/-|
E:-7-9-4-5---9-7-4-5------| x2

G:-----------------------|
D:-----------------------|
A:-----------------------|
E:-7-9-4-5---9-7-4-5-----|


G:-------------------------------------------------------|
D:--------------------------------------------1616161616-|
A:-7777141414141412121212121212121212-18181818-----------|
E:-------------------------------------------------------|

G:---------------------------------------------------------|
D:---------------------------------------------------------|
A:-16161616161414141414-7777141414141412121212121212121212-|
E:---------------------------------------------------------|

G:-------------------------------------|
D:-------------------------------------|
A:-16161616169999912121212121212121212-
E:-------------------------------------

Chorus:
G:---------------------------------------------------------------|
D:---------------------------------------------------------------|
A:---------2-2-222---------------4-4-4-4-7-7-676-----------------|
E:-0-0-000---------55-454-55-457-----------------7-7-676-5-5-5-4-|

G:--------------------------------------------------------------------|
D:---------------------------------------2----------------------------|
A:---------2-2-222---------------4-4-4-4-------------------------777--|
E:-0-0-000---------55-454-55-457-----------2-2-2-2-4h5555555555-7---7-|

G:---------------------------------------------------------------|
D:---------------------------------------------------------------|
A:---------2-2-222---------------4-4-4-4-7-7-676-----------------|
E:-0-0-000---------55-454-55-457-----------------7-7-676-5-5-5-4-|

G:--------------------------------------------------------|
D:---------------------------------------2----------------|
A:---------2-2-222---------------4-4-4-4------------------|
E:-0-0-000---------55-454-55-457-----------2-2-2-2-4h5555-|

Ending:

G:-------------------|
D:-------------------|
A:-------------------|
E:-55405-55405-55405-|

G:---------------------------------------------------------------|
D:---------------------------------------------------------------|
A:-/1212121211--12-1212121211--12-1212121211--12-1212121211--12~-|
E:------------12-------------12-------------12-------------12----|
Comments