Feeder - Insomnia Chords & Tabs

 

Insomnia Chords & Tabs

Feeder Chords & Tabs

Version: 3 Type: Tab 0 ratings
1 star 2 stars 3 stars 4 stars 5 stars
comments

Insomnia Tab

   
Band: Feeder
   Track Title: Insomnia
   Album: Yesterday Went Too Soon

   Tabbed by Sam Jenkins (samjenko@hotmail.com)

   6-String guitar in Drop-D.

   INTRO - Listen to the Song for the strumming Pattern

   E--------------->
   B--------------->
   G---------------> X2
   D-3----O----8---> 
   A-3----O----8--->
   D-3----O----8--->

   VERSE - Guitar 1 is the same as the intro, Guitar 2 as below.

   E-------------------------------------------------->
   B--10----10----10----10----10----10----11----11---->
   G-----10----10----10----10----10----10----10----10->
   D-------------------------------------------------->
   A-------------------------------------------------->
   D-------------------------------------------------->

   BRIDGE

   GUITAR 1
   E----------------->
   B----------------->
   G-----------------> X4
   D-7-7-10-10-10-10->
   A-7-7-8--8--8--8-->
   D-7-7-8--8--8--8-->

   GUITAR 2 - Comes in after Guitar 1 part
   E-------------------|------------------->
   B-------------------|------------------->
   G-12-12-12-12-14-10-|-12-12-12-12-10-10->
   D-------------------|------------------->
   A-10-10-10-10-12-8--|-10-10-10-10-8--8-->
   D-------------------|------------------->

   CHORUS
[ Tab from: http://www.guitartabs.cc/tabs/f/feeder/insomnia_tab_ver_3.html ]
   E---------------------|----------------------->
   B---------------------|----------------------->
   G---------------------|-----------------10-10->
   D-10-10-12-12-8-8-3-3-|-10-10-12-12-8-8-10-10->
   A-10-10-12-12-8-8-3-3-|-10-10-12-12-8-8-8--8-->
   D-10-10-12-12-8-8-3-3-|-10-10-12-12-8-8-X--X-->

   MIDDLE 8 - Same as Verse but at half speed.

   Lyrics:

   Verse 1
   Reading magazines and counting sheep to pass the time away
   Hoping that tomorrow's gonna bring a smile back home again
   Images of palm trees sway in the wind on south beach
   Thinking back to better days, summer rays, the Everglades in June

   Bridge
   My brain, my poor brain
   My brain, my poor brain

   CHORUS
   Drinking myself to sleep again
   Now these pills to keep me sane
   Drinking myself to sleep again
   Insomnia

   Verse 2
   Flying high in golden skies, I'm flicking channels in my mind
   Finding my utopia a different chapter in a book
   Thinking back to younger days as I escape in Coopers break
   Takes me back to eighty-four, the future's knocking at my door

   My brain, my poor brain
   My brain, my poor brain

   CHORUS X2

   Middle 8
   Turning off the switch inside me
   Leaving all the stress behind me
   Flying over streets and houses
   Passing over, no-one dying
   Takes me back to eighty-four
   The future's knocking at my door

   My brain, my poor brain
   My brain, my poor brain

   CHORUS X3
Comments