Feeder - Home For Summer Chords & Tabs

 

Home For Summer Chords & Tabs

Feeder Chords & Tabs

Version: 1 Type: Tab 0 ratings
1 star 2 stars 3 stars 4 stars 5 stars
comments

Home For Summer Tab

   
Band: Feeder
Song: Home For Summer
Album: Seven Days in the sun CDS
Tuning: standard

capo 3d fret
notes r relative to capo

Chords:
 
    G    D    Am    C    F
e|--3----2-----0----0----1--|
B|--3----3-----1----1----1--|
G|--0----2-----2----0----2--|
D|--0----0-----2----2----3--|
A|--2----X-----0----3----3--|
E|--3----X-----X----X----1--|

Grant plays the chords also using some riffs:

Riff 1
e|--2--3-3-3--3p2--|
B|--3--3-3-3--3-3--|
G|--2--2-2-2--2-2--|
D|--0--0-0-0--0-0--|
A|--X--X-X-X--X-X--|
E|--X--X-X-X--X-X--|

Riff 2
e|--0--0-0-0-0--0-0-0--|
B|--1--3-3-3-3--3-3p1--|
G|--0--0-0-0-0--0-0-0--|
D|--2--2-2-2-2--2-2-2--|
A|--3--3-3-3-3--3-3-3--|
E|--X--X-X-X-X--X-X-X--|

Riff 3
e|--2h3-3--3-3p2--|
B|--3-3-3--3-3-3--|
G|--2-2-2--2-3-3--|
D|--0-0-0--0-0-0--|
A|--X-X-X--X-X-X--|
E|--X-X-X--X-X-X--|

Riff 4
E|--0-0--0-0-0--|
B|--1h3--3-3p1--|
G|--2-2--2-2-2--|
D|--2-2--2-2-2--|
A|--0-0--0-0-0--|
E|--X-X--X-X-X--|

Intro
        G  D(w. riff1)  Am   C(w. riff2)

Verse

G                          D
  It's hard for me to comprehend
                    Am
  Holding on with broken hands
                      C
  but who will understand?
G                     D
  Wallow in the acid rain
                          Am
  what's in store for us today
                             C
  it's never gonna feel the same

Pre-Chorus

Am                       C     
   I'm waiting for an angel now
Am                C 
   to carry me above the clouds

Chorus
[ Tab from: http://www.guitartabs.cc/tabs/f/feeder/home_for_summer_tab.html ]
                  G
   'Cause it's a long 
     D   Am   
    way home
             C
    for the summer
            G
    it's a long 
     D   Am
    way up
                 C
    without a ladder
            G
    it's a long 
     D   Am   C
    way home 
                G 
    and it's a long
     D   Am
    way down

Break:

  G   D(w. riff3)   Am(w.riff4)  C

verse 2

G                        D
  Swallowing the bitter taste
                    Am
  trying to find a remedy
                       C
  before the crystal brakes
G                       D   
  looking at a picture show
                          Am
  frame by frame you see us grow
                          C
  to something you don't know

pre chorus 2
Am                          C
  you're trying to find a reason now
Am                    C 
  behind a face you see a child  

chorus 2

            G
    it's a long 
     D   Am   
    way home
             C
    for the summer
            G
    it's a long 
     D   Am
    way up
                 C
    without a ladder
                G
    and it's a long 
     D   Am   C
    way home 
                G 
    and it's a long
     D   Am
    way down

end
F                      C 
    life's a picture show
F                       C(let ring)
    frame by frame we grow


| h  hammer-on
| p  pull-off
Comments