Feeder - High Chords & Tabs

 

High Chords & Tabs

Feeder Chords & Tabs

Version: 2 Type: Bass Tab

High Bass Tab

Bass tuning is standard although it is tuned a 1/4 higher but that is only if you want 
play along with the cd. Grants vocals have deepened so you dont really need to do this 
tuning.

Bass comes in after grant plays the main riff 4 times         > = pull on
                                                              < = pull off
Verse 1:

G ---------------------------|
D ---------------------------| play twice
A ----19-15--14--16>17<16-14-|
E -17------------------------|

G -------------------|
D -------------------|  play four times
A ---7-5--2--4>5<4-2-|
E -5-----------------|

Chorus:

G ------------------|
D ------------------| play four times
A -----555522225545-|
E -5555-------------|

Verse 2:
[ Tab from: http://www.guitartabs.cc/tabs/f/feeder/high_btab_ver_2.html ]
G ---------------------------|
D ---------------------------| play twice
A ----19-15--14--16>17<16-14-|
E -17------------------------|

G -------------------|
D -------------------|  play four times
A ---7-5--2--4>5<4-2-|
E -5-----------------|

Chorus:

G ------------------|
D ------------------| play six times
A -----555522225545-|
E -5555-------------|

Bridge:

G ------------------------------------|
D --------------------7--7-----19--19-|  this part is tricky, listen to the
A ---9--7>99--9-9-7-55--5--1717--17---|  track carefully for timing
E -77-7-----77-7----------------------|

Verse 3 :

Bass does not play for first four of riffs

G ------------------|
D ------------------| play six times
A -----555522225545-|
E -5555-------------|

Ending Chorus:

G ------------------|
D ------------------| play six times
A -----555522225545-|
E -5555-------------|

ends with acoustic guitar playing and drums


tabbed by Sam Cullen