Feeder - Helium Chords & Tabs

 

Helium Chords & Tabs

Feeder Chords & Tabs

Version: 2 Type: Tab 0 ratings
1 star 2 stars 3 stars 4 stars 5 stars
comments

Helium Tab

   
Artist: Feeder
Title: Helium
Album: Comfort In Sound

Tuning: Standard (EADGBE)
Tabbed By: Daniel Brits (daniel_b11@hotmail.com)

Intro:
E|-----------------(4)(4)(4)(4)-(7)(7)(7)(7)-|
B|-----------------(4)(4)(4)(4)-(7)(7)(7)(7)-|
G|-6-6-6-6-6-6-6-6-(4)(4)(4)(4)-(7)(7)(7)(7)-|
D|-0-0-0-0-0-0-0-0--6--6--6--6---9--9--9--9--|   x4
A|-4-4-4-4-4-4-4-4--6--6--6--6---9--9--9--9--|
E|------------------4--4--4--4---7--7--7--7--|


Verses:

Intro sequence x3;
then (on end of verses):
E|----------------------------------------------------------|
B|----------------------------------------------------------|
G|-(9)-(9)-(9)-(9)-(9)-(9)-(9)-(9)-(7)(7)(7)(7)(7)(7)(7)(7)-|
D|-11--11--11--11--11--11--11--11---9--9--9--9--9--9--9--9--|
A|-11--11--11--11--11--11--11--11---9--9--9--9--9--9--9--9--|
E|-9---9---9---9---9---9---9---9----7--7--7--7--7--7--7--7--|
[ Tab from: http://www.guitartabs.cc/tabs/f/feeder/helium_tab_ver_2.html ]
*on last verse: do this sequence twice (listen to song!)


Chorus: (please listen carefully to song!)
I didn't tab all the strums down, just the various notes.
E|-(4)--(2)--(5)--(7)--(2)--(5)--(9)-|
B|-(4)--(2)--(5)--(7)--(2)--(5)--(9)-|
G|-(4)--(2)---4---(7)--(2)---4---(9)-|
D|--6----4----7----9----4----7----11-|
A|--6----4----7----9----4----7----11-|
E|--4----2----5----7----2----5----9--|


Bridge:
E|---------------------------------------------|
B|------------------------------------------19-|
G|-11--14--17--21--20---11--14--17--21--20-----|
D|---------------------------------------------|
A|---------------------------------------------|
E|---------------------------------------------|

E|-----------------------------------|
B|--------------------------------19-|
G|-11--14--17--21--20~~~~~20--21-----|
D|-----------------------------------|
A|-----------------------------------|
E|-----------------------------------|
Comments