Feeder - Helium Chords & Tabs

 

Helium Chords & Tabs

Feeder Chords & Tabs

Version: 1 Type: Tab 0 ratings
1 star 2 stars 3 stars 4 stars 5 stars
comments

Helium Tab

By charleroi66
Great song by Feeder, 

Verse

E--------------------------------------------------------
B--------------------------------------------------------
G--8-8-8-8-8-8-8-----------------------------------------
D--8-8-8-8-8-8-8---6-6-6---9-9-9-9-----------------------
A--6-6-6-6-6-6-6---6-6-6---9-9-9-9-----------------------
E------------------4-4-4---7-7-7-7-----------------------

Do for 7 times then
[ Tab from: http://www.guitartabs.cc/tabs/f/feeder/helium_tab.html ]
E--------------------------------------------------
B--------------------------------------------------
G--------------------------------------------------
D-9999999944444444---------------------------------
A-9999999944444444---------------------------------
E-7777777722222222---------------------------------

Then go back for an 8th, 9th and 10th time

Chorus


E-------------------------------------------------------------------------
B-------------------------------------------------------------------------
G-------------------------------------------------------------------------
D99999999444444447777777722222222999999994444444477777777---   x2---------
A99999999444444447777777722222222999999994444444477777777-----------------
E77777777222222225555555500000000777777772222222255555555-----------------



If anybody has ANY corrections please give. im new to this sort of stuff.
Its basically just 'tell all your friends' backwards but lower down
charleroi66@hotmail.com
Comments