Feeder - Godzilla Chords & Tabs

 

Godzilla Chords & Tabs

Feeder Chords & Tabs

Version: 1 Type: Tab 0 ratings
1 star 2 stars 3 stars 4 stars 5 stars
comments

Godzilla Tab

Title:	Godzilla
Artist: Feeder
Album: 	Comfort in Sound
Date: 	31/10/02
Tab by: Ste
Email: 	pretend_best_friend666@yahoo.com


This one has a cool meaty riff in it.  I think it probably should be drop D for 
the heavy effect but I can't be arsed changing the tuning so here it is in
standard tuning

Main Riff

e---------------------------------------------------------------------
B---------------------------------------------------------------------
G---------------------------------------------------------------------
D-2-2-3-4-4--7-7-7-7--------------------------------------------------
A-2-2-3-4-4--7-7-7-7--------------------------------------------------
E-0-0-1-2-2--5-5-5-5--------------------------------------------------

Thats repeated for most of the song, its broken up by:

[ Tab from: http://www.guitartabs.cc/tabs/f/feeder/godzilla_tab.html ]
e---------------------------------------------------------------------
B---------------------------------------------------------------------
G---------------------------------------------------------------------
D-2-2-2-2-2-2-2-2-2-2-2-2-5-5-5-5-2-2-2-2-2-2-2-2-2-2-2-2-5-5-5-5-----
A-2-2-2-2-2-2-2-2-2-2-2-2-5-5-5-5-2-2-2-2-2-2-2-2-2-2-2-2-5-5-5-5-----
E-0-0-0-0-0-0-0-0-0-0-0-0-3-3-3-3-0-0-0-0-0-0-0-0-0-0-0-0-3-3-3-3-----



Then just after the minute mark you get the trademark feeder breakdown thing
something like this:


e---------------------------------------------------------------------
B---------------------------3h5---------------------------------------
G-----------------------2h4-------------------------------------------
D-2-2-2-3-3-3-2-2-2-3-3----------------------------------------------- x4
A-2-2-2-3-3-3-2-2-2-3-3-----------------------------------------------
E-0-0-0-1-1-1-0-0-0-1-1-----------------------------------------------


And thats all the parts you need.  Just keep repeating the first 2 riffs where necessary
and your sorted.

Stay cool

Ste


Comments