Feeder - Getting To Know You Well Chords & Tabs

 

Getting To Know You Well Chords & Tabs

Feeder Chords & Tabs

Version: 1 Type: Tab 0 ratings
1 star 2 stars 3 stars 4 stars 5 stars
comments

Getting To Know You Well Tab

Band: Feeder
song: GETTING TO KNOW YOU WELL
Album: Yesterday Went Too Soon CDS

Original Tab By Alex Ball

Drop D Tuning

Verse:

E|----------------------------------------------------------------|
B|----------------------------------------------------------------|
G|------------------------------------12-12-12-12-12-12-12-12-12--|
D|--12--12--12--12--12-12-12-12-12-12-12-12-12-12-12-12-12-12-12--|
A|--10--10--10--10---9--9--9--9--9--9--8--8--8--8--7--7--7-7--7---|
D|--10--10--10--10---9--9--9--9--9--9--8--8--8--8--7--7--7-7--7---|

Corus:

Gtr1: 
[ Tab from: http://www.guitartabs.cc/tabs/f/feeder/getting_to_know_you_well_tab.html ]
E|--------------------------------|
B|------3-------------------------|
G|--------2-----------0-----0-----|
D|----0-------------0-----0-----0-|
A|----------3s-5--3-----2-----2---|
D|--0-----------------------------|

Gtr2:

E|------0------3---2s---5--|
B|--------3----------------|
G|----2-----2--------------|
D|--0----------------------|
A|-------------------------|
D|-------------------------|

Bridge: listen to the track to get the right rythm

E|--------------|
B|--------------|
G|--7--9-11-12--|
D|--0--0--0--0--|
A|--0--0--0--0--|
D|--0--0--0--0--|

that's it.
Comments