Feeder - Find The Colour Chords & Tabs

 

Find The Colour Chords & Tabs

Feeder Chords & Tabs

Version: 1 Type: Tab 0 ratings
1 star 2 stars 3 stars 4 stars 5 stars
comments

Find The Colour Tab

   
feeder/comfort in sound/find the colour
submitted by chicken-wings

1x10
2
1x4
2
3x9
1x4
2x2

1  A     Asus4         Bm7
e-----------------------------------------------
 --2-----2--2-2-3-3-3-3-3--3-----3--3-3-3-3-3-3-
 --2--2-----2-2-2-2-2-2-2--2--2-----2-2-2-2-2-2-
 --2--------2-2-2-2-2-2-2--0--------0-0-0-0-0-0-  
 --0--------0-0-0-0-0-0-0--2--------2-2-2-2-2-2-
E-----------------------------------------------
[ Tab from: http://www.guitartabs.cc/tabs/f/feeder/find_the_colour_tab.html ]
2
e- -- ---- -- -- --- -- -- -- -- -- -- -- -- -- -- -- -- -- -- -- -- -- -- -- -- -- -- -- -
 -14-14---14-14-14--15-15-15-15-15-15-14-15-15-15-15-15-14-15-15-15-15-15-17-14-14-14-14-14
 -14-14---14-14-14--14-14-14-14-14-14-14-14-14-14-14-14-14-14-14-14-14-14-14-14-14-14-14-14
 - -- ---- -- -- --- -- -- -- -- -- -- -- -- -- -- -- -- -- -- -- -- -- -- -- -- -- -- -- -
 - -- ---- -- -- --- -- -- -- -- -- -- -- -- -- -- -- -- -- -- -- -- -- -- -- -- -- -- -- -
E- -- ---- -- -- --- -- -- -- -- -- -- -- -- -- -- -- -- -- -- -- -- -- -- -- -- -- -- -- -

2(cont)
e- -- -- -- -- -- -- -- -- -- -- -- -- -- -
 -15-15-15-15-15-15-14-15-15-15-15-15-14-15
 -14-14-14-14-14-14-14-14-14-14-14-14-14-14
 - -- -- -- -- -- -- -- -- -- -- -- -- -- -
 - -- -- -- -- -- -- -- -- -- -- -- -- -- -
E- -- -- -- -- -- -- -- -- -- -- -- -- -- -

3
e-----5-----5---5
 ---3-----3----3-
 -4-----4----4---
 ----------------
 ----------------
E----------------
Comments