Feeder - Dove Grey Sands Chords & Tabs

 

Dove Grey Sands Chords & Tabs

Feeder Chords & Tabs

Version: 2 Type: Tab 0 ratings
1 star 2 stars 3 stars 4 stars 5 stars
comments

Dove Grey Sands Tab

   
Band: 	Feeder 				Capo: 	5th fret 
Song: 	Dove Grey Sands			Tuning:	Standard
Album: 	Pushing The Senses		Notes: 	relative to capo


Intro:
  D       Dsus2     D       Dsus2   (x2)
e|-2---2---0---0---|-2---2---0---0---| 
B|--3---3---3---3--|--3---3---3---3--|
G|---2---2---2---2-|---2---2---2---2-|
D|0---0---0---0----|0---0---0---0----|
A|-----------------|-----------------|
E|-----------------|-----------------|

Verse:                                                                
  D       Dsus2     D       Dsus2     C                 G               (x2)
e|-2---2---0---0---|-2---2---0---0---|-0---0---0---0---|-0---0---0---0---| 
B|--3---3---3---3--|--3---3---3---3--|--3---3---3---3--|--3---3---3---3--|
G|---2---2---2---2-|---2---2---2---2-|---0---0---0---0-|---0---0---0---0-|
D|0---0---0---0----|0---0---0---0----|-----------------|-----------------|
A|-----------------|-----------------|3---3---3---3----|-----------------|
E|-----------------|-----------------|-----------------|3---3---3---3----|

Pre-Chorus:
  D       Dsus2     D        Dsus2    Am                C               (x2)
e|-2---2---0---0---|-2---2---0---0---|-0---0---0---0---|0---0---0---0----| 
B|--3---3---3---3--|--3---3---3---3--|--1---1---1---1--|-1---1---1---1---|
G|---2---2---2---2-|---2---2---2---2-|---2---2---2---2-|---0---0---0---0-|
D|0---0---0---0----|0---0---0---0----|2---2---2---2----|2---2---2---2----|
A|-----------------|-----------------|-----------------|-----------------|
E|-----------------|-----------------|-----------------|-----------------|
[ Tab from: http://www.guitartabs.cc/tabs/f/feeder/dove_grey_sands_tab_ver_2.html ]
Chorus:
  D                 C       Em        D                 C       G       (x2)
e|-2---2---2---2---|-0---0---0---0---|-2---2---2---2---|-0---0---0---0---| 
B|--3---3---3---3--|--3---3---3---3--|--3---3---3---3--|--3---3---3---3--|
G|---2---2---2---2-|---0---0---0---0-|---2---2---2---2-|---0---0---0---0-|
D|0---0---0---0----|--------2---2----|0---0---0---0----|-----------------|
A|-----------------|3---3------------|-----------------|3---3------------|
E|-----------------|-----------------|-----------------|--------3---3----|

Repeat intro (x1)
Repeat verse (x2)
Repeat pre-chorus (x2)
Repeat chorus (x2)

Bridge:	(Feeling like it's over...)
  F                 C       Em        Dm                C       G       (x2)
e|-0---0---0---0---|-0---0---0---0---|-1---1---1---1---|-0---0---0---0---| 
B|--1---1---1---1--|--1---1---1---1--|--3---3---3---3--|--1---1---0---0--|
G|---2---2---2---2-|---0---0---0---0-|---2---2---2---2-|---0---0---0---0-|
D|3---3---3---3----|-----------------|0---0---0---0----|-----------------|
A|-----------------|3---3---2---2----|-----------------|3---3------------|
E|-----------------|-----------------|-----------------|--------3---3----|

Repeat verse (x5)

outro: 				then:

   D       Dsus2    (x2)	  D        Dsus2			
e|--2---2---0---0----|	         e|--2---2---0---0------|
B|---3---3---3---3---|		B|---3---3---3---3-----|
G|----2---2---2---2--|		G|----2---2---2---2----|
D|-0---0---0---0-----| 		D|-0---0---0---0---0---|
A|-------------------| 		A|---------------------|
E|-------------------|		E|---------------------|


This version was created by 'KC' on April 25, 2005

I definitely agree with shiruzu, this song is amazing!!! 

A very special thanks to ''CATL'' for the inspiration :-P
Comments